Oops, an error
Loading. Please wait.

Kill The Dj Tab

version 4
version 4

Whole song

Interactive

Video

5,408 views 3 this week
no commentswrite comment
1 2 3 4 5
accurate
x 3
add to favorites
launch autoscroll
font size
0
reset
how to read this tab
guitar tuner
Tab Pro tools
  • play this tab
  • loop segment
  • change instrument
  • show fretboard
  • metronome
×
Best way to learn
"Kill The Dj"
Autoscroll
slow
fast
+/-
esc
set tempo
stop
Contributor
Green Day - Kill The DJ guitar tab

INTRO a x1
e|-----------------|---------------------|
B|-----------------|---------------------|
G|-----------------|---------------------|
D|-----------------|---------------------|
A|-----------------|---------------------|
E|--5---5---5---5--|--5---5---5---5-5-3--|
INTRO b x1
e|----5-------5--|-----10--x-x---------|----5-------5--|-----10--x-x---------|
B|----5-------5--|-----10--x-x---------|----5-------5--|-----10--x-x---------|
G|----5-------5--|-----10--x-x---------|----5-------5--|-----10--x-x---------|
D|-7-------7-----|-12--12--------------|-7-------7-----|-12--12--------------|
A|-7-------7-----|-12--12--------------|-7-------7-----|-12--12--------------|
E|-5-----5-5-----|-10--10------3-3-3-4-|-5-----5-5-----|-10--10------3-3-3-4-|
VERSE a x2 (same as INTRO b)
"Walking after dark, in the New York City park..."
e|----5-------5--|-----10--x-x---------|----5-------5--|-----10--x-x---------|
B|----5-------5--|-----10--x-x---------|----5-------5--|-----10--x-x---------|
G|----5-------5--|-----10--x-x---------|----5-------5--|-----10--x-x---------|
D|-7-------7-----|-12--12--------------|-7-------7-----|-12--12--------------|
A|-7-------7-----|-12--12--------------|-7-------7-----|-12--12--------------|
E|-5-----5-5-----|-10--10------3-3-3-4-|-5-----5-5-----|-10--10------3-3-3-4-|
VERSE b x1
"The bull left on the dance floor, ridin', runnin' red..."
e|----7-------7--|-----5----------------|----7-------7--|-----|
B|----8-------8--|-----6----------------|----8-------8--|-----|
G|-9--9----9--9--|--7--7----7-7-5--7--5-|-9--9----9--9--|--7--|
D|-9-------9-----|--7-------------------|-9-------9-----|--7--|
A|-7-------7-----|--5-------------------|-7-------7-----|--5--|
E|-------0-------|----------------------|-------0-------|-----|
PRE-CHORUS a x3
"Someone kill the DJ, shoot the fucking DJ.."
e|-x-5--x-5--x-5--x-5-|-x-5--x-5--x----x---|
B|-x-5--x-5--x-5--x-5-|-x-6--x-6--x-3--x-3-|
G|-x-5--x-5--x-5--x-5-|-x-7--x-7--x-4--x-4-|
D|-x----x----x----x---|-x----x----x-5--x-5-|
A|--------------------|--------------------|
E|--------------------|--------------------|
GUITAR 2 PLAYS THIS FILL:
e|--------------------|--------------------|
B|--------------------|--------------------|
G|--------------------|--7b----7-5---------|
D|--------------------|------------7-------|
A|--------------------|--------------------|
E|--------------------|--------------------|
PRE-CHORUS b x1
"Voices in my head are saying shoot the fucker down..."
e|-----------------|---------------------|
B|-----------------|---------------------|
G|-----------------|---------------------|
D|-----------------|------------------5--|
A|-----------------|------------------5--|
E|--5---5---5---5--|--5---5---5---5-5-3--|
CHORUS x1
"We are the vultures, the dirtiest kind..."
e|-8-------3-------|-3-------5-------|-8-------3-------|-----------------------|
B|-10------5-------|-3-------5-------|-10------3-------|-----------------------|
G|-10------5-------|-4-------5-------|-10------4-------|-----------------------|
D|-10------5-------|-5-------7-------|-10------5-------|-----------------------|
A|-8-------3-------|-5-------7-------|-8-------5-------|-----------------------|
E|-----------------|-3-------5-------|---------3-------|-0--0--0-0-0--0--5-5-3-|
INTRO b x1
e|----5-------5--|-----10--x-x---------|----5-------5--|-----10--x-x---------|
B|----5-------5--|-----10--x-x---------|----5-------5--|-----10--x-x---------|
G|----5-------5--|-----10--x-x---------|----5-------5--|-----10--x-x---------|
D|-7-------7-----|-12--12--------------|-7-------7-----|-12--12--------------|
A|-7-------7-----|-12--12--------------|-7-------7-----|-12--12--------------|
E|-5-----5-5-----|-10--10------3-3-3-4-|-5-----5-5-----|-10--10------3-3-3-4-|
VERSE a x2 (same as INTRO b)
"Walking after dark, in the New York City park..."
e|----5-------5--|-----10--x-x---------|----5-------5--|-----10--x-x---------|
B|----5-------5--|-----10--x-x---------|----5-------5--|-----10--x-x---------|
G|----5-------5--|-----10--x-x---------|----5-------5--|-----10--x-x---------|
D|-7-------7-----|-12--12--------------|-7-------7-----|-12--12--------------|
A|-7-------7-----|-12--12--------------|-7-------7-----|-12--12--------------|
E|-5-----5-5-----|-10--10------3-3-3-4-|-5-----5-5-----|-10--10------3-3-3-4-|
VERSE b x1
"The bull left on the dance floor, ridin', runnin' red..."
e|----7-------7--|-----5----------------|----7-------7--|-----|
B|----8-------8--|-----6----------------|----8-------8--|-----|
G|-9--9----9--9--|--7--7----7-7-5--7--5-|-9--9----9--9--|--7--|
D|-9-------9-----|--7-------------------|-9-------9-----|--7--|
A|-7-------7-----|--5-------------------|-7-------7-----|--5--|
E|-------0-------|----------------------|-------0-------|-----|
PRE-CHORUS a x3
"Someone kill the DJ, shoot the fucking DJ.."
e|-x-5--x-5--x-5--x-5-|-x-5--x-5--x----x---|
B|-x-5--x-5--x-5--x-5-|-x-6--x-6--x-3--x-3-|
G|-x-5--x-5--x-5--x-5-|-x-7--x-7--x-4--x-4-|
D|-x----x----x----x---|-x----x----x-5--x-5-|
A|--------------------|--------------------|
E|--------------------|--------------------|
GUITAR 2 PLAYS THIS FILL:
e|--------------------|--------------------|
B|--------------------|--------------------|
G|--------------------|--7b----7-5---------|
D|--------------------|------------7-------|
A|--------------------|--------------------|
E|--------------------|--------------------|
PRE-CHORUS b x1
"Voices in my head are saying shoot the fucker down..."
e|-----------------|---------------------|
B|-----------------|---------------------|
G|-----------------|---------------------|
D|-----------------|------------------5--|
A|-----------------|------------------5--|
E|--5---5---5---5--|--5---5---5---5-5-3--|
CHORUS x1
"We are the vultures, the dirtiest kind..."
e|-8-------3-------|-3-------5-------|-8-------3-------|-----------------------|
B|-10------5-------|-3-------5-------|-10------3-------|-----------------------|
G|-10------5-------|-4-------5-------|-10------4-------|-----------------------|
D|-10------5-------|-5-------7-------|-10------5-------|-----------------------|
A|-8-------3-------|-5-------7-------|-8-------5-------|-----------------------|
E|-----------------|-3-------5-------|---------3-------|-0--0--0-0-0--0--5-5-3-|
BRIDGE a x1
e|-----------------|-----------------|-----------------|-----------------|
B|-----------------|-----------------|-----------------|-----------------|
G|-----------------|-----------------|-----------------|-----------------|
D|-----------------|-----------------|-----------------|-----------------|
A|-----------------|-----------------|-----------------|-----------------|
E|-5---------------|-----------------|-----------------|-----------------|
BRIDGE b x1
e|-----------------|---------------------|-----------------|---------------------|
B|-----------------|---------------------|-----------------|---------------------|
G|-----------------|---------------------|-----------------|---------------------|
D|-----------------|---------------------|-----------------|---------------------|
A|-----------------|---------------------|-----------------|---------------------|
E|-5-5-5-5-7-7-7-7-|-8-8-8-8-12-12-12-12-|-5-5-5-5-7-7-7-7-|-8-8-8-8-12-12-12-12-|
   .............................................................................
"...shoot that fucker down..."
e|-----------------|-------------------------|-----------------|-----------------|
B|-----------------|-------------------------|-----------------|-----------------|
G|-----------------|-------------------------|-----------------|-----------------|
D|-7-7-7-7-9-9-9-9-|-10-10-10-10-14-14-14-14-|-----------------|-----------------|
A|-----------------|-------------------------|-----------------|-----------------|
E|-5-5-5-5-7-7-7-7-|-8--8--8--8--12-12-12-12-|-5---------------|-----------5-5-3-|
   .........................................
SOLO x1
e|-----------------|-----------------|-----------------|----17-17-17-17--|
B|-/5---------5-5--|--5/7-7-7--------|-----------------|----17-17-17-17--|
G|-/5---------5-5--|--5/7-7-7--x--x--|-7-7-5---7---5---|----17-17-17-17--|
D|-----------------|-----------------|-----------------|-----------------|
A|-----------------|-----------------|-----------------|-----------------|
E|-----------------|-----------------|-----------------|-----------------|

e|-------------------------|------------------|--------------------|--17-17-17-17-|
B|---------------8---------|--5-5-5-5---------|--7-----------------|--17-17-17-17-|
G|-5-5---5b--7b-----7rb--5-|--5-5-5-5-----5-5-|--7---7-7-5---7---5-|--17-17-17-17-|
D|-------------------------|------------------|--------------------|--------------|
A|-------------------------|------------------|--------------------|--------------|
E|-------------------------|------------------|--------------------|--------------|

e|-------------------------|------------------|-----------------------------------|
B|-------------------------|-6----5-----------|-6----5----------------------------|
G|-5-5---7----5----5-5b--5-|-5----5----4----5-|-5----5----------------------------|
D|--------------7----------|-----------5----7-|------------------------x-x-x--x-x-|
A|-------------------------|------------------|------------------------x-x-x--x-x-|
E|-------------------------|------------------|---------0--0--0-0-0--0-x-x-x--x-x-|
BRIDGE a x1
"Someone kill the DJ, shoot the fucking DJ.."
e|-----------------|-----------------|-----------------|-----------------|
B|-----------------|-----------------|-----------------|-----------------|
G|-----------------|-----------------|-----------------|-----------------|
D|-----------------|-----------------|-----------------|-----------------|
A|-----------------|-----------------|-----------------|-----------------|
E|-5---------------|-----------------|-----------------|-----------------|
BRIDGE b x7
"Someone kill the DJ, shoot the fucking DJ.."
e|-----------------|---------------------|
B|-----------------|---------------------|
G|-----------------|---------------------|
D|-----------------|---------------------|
A|-----------------|---------------------|
E|-5-5-5-5-7-7-7-7-|-8-8-8-8-12-12-12-12-|
 .....................................
then
"...shoot that fucker down..."
e|-----------------|-----------------|
B|-----------------|-----------------|
G|-----------------|-----------------|
D|-----------------|-----------------|
A|-----------------|-----------------|
E|-5---------------|-----------5-5-3-|
OUTRO x3 (same as PRE-CHORUS)
"Someone kill the DJ, shoot the fucking DJ.."
e|-x-5--x-5--x-5--x-5-|-x-5--x-5--x----x---|
B|-x-5--x-5--x-5--x-5-|-x-6--x-6--x-3--x-3-|
G|-x-5--x-5--x-5--x-5-|-x-7--x-7--x-4--x-4-|
D|-x----x----x----x---|-x----x----x-5--x-5-|
A|--------------------|--------------------|
E|--------------------|--------------------|
GUITAR 2 PLAYS THIS FILL:
e|--------------------|--------------------|
B|--------------------|--------------------|
G|--------------------|--7b----7-5---------|
D|--------------------|------------7-------|
A|--------------------|--------------------|
E|--------------------|--------------------|
ENDING x1
"Voices in my head are saying shoot the fucker down..."
e|-----------------|---------------------5-|
B|-----------------|---------------------5-|
G|-----------------|---------------------5-|
D|-----------------|------------------5--7-|
A|-----------------|------------------5--7-|
E|--5---5---5---5--|--5---5---5---5-5-3--5-|
comments
We did not receive enough feedback on this tab! Please rate:
print report bad tab
1 2 3 4 5
I want to post or [tab]
guest
You may want to rate the tab now too:
select rating
Please do not post tabs as comments. Select "correction" instead!