Oops, an error
Loading. Please wait.

Kill The Dj tab

version 6
version 6

Whole song

Interactive

Video

16 views 1 this week
no commentswrite comment
1 2 3 4 5
2 more votes to show rating
add to favorites
×
Save as Personal and add changes to this tab that will be seen only by you. Learn more ›
×
You can save this tab as Personal to edit and correct it or add notes. All changes will be seen only by you. Learn more »
launch autoscroll
font size
0
reset
how to read this tab
guitar tuner
backing track
0:00
0:00
edit
Autoscroll
slow
fast
+/-
esc
set tempo
stop
About this tab version
It's my way to play the song and I think it's the best way so I want to share it. Was this info helpful? Yes No
Kill The DJ-Green Day

[Intro]
[Guitar 1]
e|------------------------------------------|
B|------------------------------------------|
G|------------------------------------------|
D|------------------------------------------|
A|------------------------------------------|
E|-5--5--5--5--5--5--5-55—3-----------------|
 
[Guitar 2]
e|------------------------------------------|
B|------------------------------------------|
G|------------------------------------------|
D|-7--7--7--7--7--7--7-77-5-----------------|
A|-7--7--7--7--7--7--7-77-5-----------------|
E|-5--5--5--5--5--5--5-55—3-----------------|

[Intro 2/Verse]
e|----5-------------7---------------5-------------7-------------|
B|----5-------------7---------------5-------------7-------------|
G|----5-------------7---------------5-------------7-------------|x4
D|--------------------------------------------------------------| 
A|--------------------------------------------------------------|
E|--------------------------------------------------------------|
 
e|--------------------------------------------------------------|
B|--------------------------------------------------------------|
G|---------------x7-7--------------------------x7-7-------------|x4
D|--7-7--x7-7----x7-7---x5-5-5-6--7-7--x7-7----x7-7---x5-5-5-6--| 
A|--7-7--x7-7----x5-5---x5-5-5-6--7-7--x7-7----x5-5---x5-5-5-6--|
E|--5-5--x5-5-----------x3-3-3-4--5-5--x5-5-----------x3-3-3-4--|

[Prechorus]
["The blood left on the dance floor"]
e|--------------------------------------------------------------|
B|--------------------------------------------------------------|
G|------------- ------x-x-77-5-7-5-------------------------- ---|
D|--------------------x-x-xx-x-x-x------------------------------|
A|--------------------x-x-77-3-5-3------------------------------|
E|--------------------------------------------------------------|

e|--------------------------------------------------------------|
B|--------------------------------------------------------------|
G|---------------x7-7---x7-7-7-9---------------x7-7---x7--------|
D|--2-2--x2-2----x7-7---x7-7-7-9--2-2--x2-2----x7-7---x7--------|
A|--2-2--x2-2----x5-5---x5-5-5-7--2-2--x2-2----x5-5---x5--------|
E|--0-0--x0-0---------------------0-0--x0-0---------------------|

[Chorus]
["Someone kill the DJ, shoot the fucking DJ"]
e|-x-5-x5-x-5-x5-x-7-x7-x-3-x3-x-5-x5-x-5-x5-x-7-xx-----------|
B|-x-5-x5-x-5-x5-x-7-x7-x-3-x3-x-5-x5-x-5-x5-x-7-xx----8------|
G|-x-5-x5-x-5-x5-x-7-x7-x-4-x4-x-5-x5-x-5-x5-x-7-xx-7b--7b5---|
D|----------------------x-5-x5--------------------------------|
A|------------------------------------------------------------|
E|------------------------------------------------------------|
 
e|------------------------------------------------------------|
B|------------------------------------------------------------|
G|---------------x7-7------------------------x7-7-------------|
D|--7-7--x7-7----x7-7---x5-5----7-7--x7-7----x7-7---x5-5-5-6--| 
A|--7-7--x7-7----x5-5---x5-5----7-7--x7-7----x5-5---x5-5-5-6--|
E|--5-5--x5-5-----------x3-3----5-5--x5-5-----------x3-3-3-4--|

["Voices in my head are sayin’:'Shoot that fucker down'"]
["Hold him underwater 'till the motherfucker drowns"]
e|------------------------------------------|
B|------------------------------------------|
G|------------------------------------------|
D|------------------------------------------|
A|------------------------------------------|
E|-5--5--5--5--5--5--5-55—3-----------------|

e|------------------------------------------|
B|------------------------------------------|
G|------------------------------------------|
D|-7--7--7--7--7--7--7-77-5-----------------|
A|-7--7--7--7--7--7--7-77-5-----------------|
E|-5--5--5--5--5--5--5-55—3-----------------|

["We are the vultures. . ."]
e|--5~---8~---3~---5~---5~---8~-------------------------------|
B|--6~---8~---3~---5~---6~---8~-------------------------------|
G|--5~---9~---4~---5~---5~---9~-------------------------------|
D|------10~---5~---7~-------10~-------------------------------|
A|------------------------------------------------------------|
E|--------------------------------0--0--0--0--0---0-3-5-------|

e|------------------------------------------------------------|
B|------------------------------------------------------------|
G|-------5-------------------5--------------------------------|
D|--3----5----5----7----3----5----2--2--2--2--2---2-5-7-------|
A|--3----3----5----7----3----3----2--2--2--2--2---2-5-7-------|
E|--1---------3----5----1---------0--0--0--0--0---0-3-5-------|

[Before the verse 2 play this]
e|------5--------55--x7-7-xxxx-----------5555------55--7-7xxxx------------|
B|------5--------55--x7-7-xxxx-----------5555------55--7-7xxxx----8-------|
G|------5--------55--x7-7-xxxx-77-5-7-5--5555------55--7-7xxxx-7b--7b5----|
D|------------------------------------------------------------------------|
A|------------------------------------------------------------------------|
E|------------------------------------------------------------------------|
 
e|------------------------------------------------------------------------|
B|------------------------------------------------------------------------|
G|------------------x7-7------------------------------x7-7----------------|
D|--7-7---x7-7------x7-7-----x5-5-5-6--7-7----x7-7----x7-7----x5-5-5-6----|
A|--7-7---x7-7------x5-5-----x5-5-5-6--7-7----x7-7----x5-5----x5-5-5-6----|
E|--5-5---x5-5---------------x3-3-3-4--5-5----x5-5------------x3-3-3-4----|
    
[Intro 2/Verse]
e|----5-------------7---------------5-------------7-------------|
B|----5-------------7---------------5-------------7-------------|
G|----5-------------7---------------5-------------7-------------|x4
D|--------------------------------------------------------------| 
A|--------------------------------------------------------------|
E|--------------------------------------------------------------|
 |
e|--------------------------------------------------------------|
B|--------------------------------------------------------------|
G|---------------x7-7--------------------------x7-7-------------|x4
D|--7-7--x7-7----x7-7---x5-5-5-6--7-7--x7-7----x7-7---x5-5-5-6--| 
A|--7-7--x7-7----x5-5---x5-5-5-6--7-7--x7-7----x5-5---x5-5-5-6--|
E|--5-5--x5-5-----------x3-3-3-4--5-5--x5-5-----------x3-3-3-4--|

[Prechorus]
["The blood left on the dance floor"]
e|--------------------------------------------------------------|
B|--------------------------------------------------------------|
G|------------- ------x-x-77-5-7-5-------------------------- ---|
D|--------------------x-x-xx-x-x-x------------------------------|
A|--------------------x-x-77-3-5-3------------------------------|
E|--------------------------------------------------------------|

e|--------------------------------------------------------------|
B|--------------------------------------------------------------|
G|---------------x7-7---x7-7-7-9---------------x7-7---x7--------|
D|--2-2--x2-2----x7-7---x7-7-7-9--2-2--x2-2----x7-7---x7--------|
A|--2-2--x2-2----x5-5---x5-5-5-7--2-2--x2-2----x5-5---x5--------|
E|--0-0--x0-0---------------------0-0--x0-0---------------------|

[Chorus]
["Someone kill the DJ, shoot the fucking DJ"]
e|-x-5-x5-x-5-x5-x-7-x7-x-3-x3-x-5-x5-x-5-x5-x-7-xx-----------|
B|-x-5-x5-x-5-x5-x-7-x7-x-3-x3-x-5-x5-x-5-x5-x-7-xx----8------|
G|-x-5-x5-x-5-x5-x-7-x7-x-4-x4-x-5-x5-x-5-x5-x-7-xx-7b--7b5---|
D|----------------------x-5-x5--------------------------------|
A|------------------------------------------------------------|
E|------------------------------------------------------------|
 
e|------------------------------------------------------------|
B|------------------------------------------------------------|
G|---------------x7-7------------------------x7-7-------------|
D|--7-7--x7-7----x7-7---x5-5----7-7--x7-7----x7-7---x5-5-5-6--| 
A|--7-7--x7-7----x5-5---x5-5----7-7--x7-7----x5-5---x5-5-5-6--|
E|--5-5--x5-5-----------x3-3----5-5--x5-5-----------x3-3-3-4--|

[Bridge]    
e|----------|
B|----------|
G|----------|
D|----------|
A|----------|
E|--5~~~~~~-|

e|----------|
B|----------|
G|----------|
D|--7~~~~~~-|
A|--7~~~~~~-|
E|--5~~~~~~-|
                   
                        x2                           x1
e|------------------------|----------------------------|
B|------------------------|----------------------------|
G|------------------------|----------------------------|
D|------------------------|-777799991010101014141414---|
A|------------------------|-xxxxxxxxx-x-x-x-x-x-x-x----|
E|------------------------|-555577778-8-8-8-12121212---|

e|------------------------|----------------------------|
B|------------------------|----------------------------|
G|------------------------|----------------------------|
D|------------------------|----------------------------|
A|------------------------|----------------------------|
E|-55557777888812121212---|-555577778-8-8-8-12121212---|

["Shoot that fucker down"]
e|-------------|
B|-------------|
G|-------------|
D|-------------|
A|-------------|
E|--5----0-3-5-|
 
e|-------------|
B|-------------|
G|-------------|
D|--7----2-5-7-|
A|--7----2-5-7-|
E|--5----0-3-5-|

[Solo]
e|-5~~~~~--55-x7------------------17171717------55---7-7~-----------------|
B|-5~~~~~--55-x7------------------17171717----xx55--x7-7~----------8------|
G|-5~~~~~--55-x7--x-x-77-5-7-5----17171717----xx55--x7-7~---x-x-7b~~7b5---|
D|-----------------------------------------------------7~-----------------|
A|------------------------------------------------------------------------|
E|------------------------------------------------------------------------|
 
e|------------------------------------------------------------------------|
B|------------------------------------------------------------------------|
G|------------------x7-7------------------------------x7-7----------------|
D|--7-7---x7-7------x7-7-----x5-5-5-6--7-7----x7-7----x7-7----x5-5-5-6----|
A|--7-7---x7-7------x5-5-----x5-5-5-6--7-7----x7-7----x5-5----x5-5-5-6----|
E|--5-5---x5-5---------------x3-3-3-4--5-5----x5-5------------x3-3-3-4----|

e|-5555----55-x7------------------17171717------55---7-7~-----------------|
B|-5555----55-x7------------------17171717----xx55--x7-7~-----------------|
G|-5555----55-x7--x-x-77-5-7-5----17171717----xx55--x7-7~---x-x-77-5-7-5--|
D|-----------------------------------------------------7~-----------------|
A|------------------------------------------------------------------------|
E|------------------------------------------------------------------------|
 
e|------------------------------------------------------------------------|
B|------------------------------------------------------------------------|
G|------------------x7-7------------------------------x7-7----------------|
D|--7-7---x7-7------x7-7-----x5-5-5-6--7-7----x7-7----x7-7----x5-5-5-6----|
A|--7-7---x7-7------x5-5-----x5-5-5-6--7-7----x7-7----x5-5----x5-5-5-6----|
E|--5-5---x5-5---------------x3-3-3-4--5-5----x5-5------------x3-3-3-4----|

e|--5~---8~---3~---5~---5~---8~-------------------------------|
B|--6~---8~---3~---5~---6~---8~-------------------------------|
G|--5~---9~---4~---5~---5~---9~-------------------------------|
D|------10~---5~---7~-------10~-------------------------------|
A|------------------------------------------------------------|
E|--------------------------------0--0--0--0--0---0-3-5-------|

e|--x----8----3----5----x----8--------------------------------|
B|--10---8----3----5----10---8--------------------------------|
G|--10---9----4----5----10---9--------------------------------|
D|--10---10---5----7----10---10---2--2--2--2--2---2-5-7-------|
A|--8----10---5----7----8----10---2--2--2--2--2---2-5-7-------|
E|-------8----3----5---------8----0--0--0--0--0---0-3-5-------|
    
[“Someone kill the DJ, shoot the fucking DJ”        “Shoot that fucker down”]
                        x1                       x7
e|------------------------|------------------------|------------|
B|------------------------|------------------------|------------|
G|------------------------|------------------------|------------|
D|------------------------|------------------------|------------|
A|------------------------|------------------------|------------|
E|-5--5--5--5--5--5--5--5—|--55557777888812121212--|-5---0-3-5--|
 |
e|------------------------|------------------------|------------|
B|------------------------|------------------------|------------|
G|------------------------|------------------------|------------|
D|-7--7--7--7--7--7--7--7-|-7--7--7--7--7--7--7--7-|-7---2-5-7--|
A|-7--7--7--7--7--7--7--7-|-7--7--7--7--7--7--7--7-|-7---2-5-7--|
E|-5--5--5--5--5--5--5--5-|-5--5--5--5--5--5--5--5-|-5---0-3-5--|

[End chorus]
e|-5~~~~~--55-x7------------------17171717------55---7-7~-----------------|
B|-5~~~~~--55-x7------------------17171717----xx55--x7-7~----------8------|
G|-5~~~~~--55-x7--x-x-77-5-7-5----17171717----xx55--x7-7~---x-x-7b~~7b5---|
D|-----------------------------------------------------7~-----------------|
A|------------------------------------------------------------------------|
E|------------------------------------------------------------------------|

e|------------------------------------------------------------------------|
B|------------------------------------------------------------------------|
G|------------------x7-7------------------------------x7-7----------------|
D|--7-7---x7-7------x7-7-----x5-5-5-6--7-7----x7-7----x7-7----x5-5-5-6----|
A|--7-7---x7-7------x5-5-----x5-5-5-6--7-7----x7-7----x5-5----x5-5-5-6----|
E|--5-5---x5-5---------------x3-3-3-4--5-5----x5-5------------x3-3-3-4----|

e|-5555----55-x7-----------------------|--------------------------|
B|-5555----55-x7-----------------------|--------------------------|
G|-5555----55-x7--x-x-77-5-7-5---------|--------------------------|
D|-------------------------------------|--------------------------|
A|-------------------------------------|--------------------------|
E|-------------------------------------|-5--5--5--5--5--5--5-55-3-|

e|-------------------------------------|--------------------------|
B|-------------------------------------|--------------------------|
G|------------------x7-7---------------|--------------------------|
D|--7-7---x7-7------x7-7-----x5-5-5-6--|-7--7--7--7--7--7--7-77-5-|
A|--7-7---x7-7------x5-5-----x5-5-5-6--|-7--7--7--7--7--7--7-77-5-|
E|--5-5---x5-5---------------x3-3-3-4--|-5--5--5--5--5--5--5-55-3-|

[End on]
[Both guitars]
e|-5~~~~-------|
B|-5~~~~-------|
G|-5~~~~-------|
D|-7~~~~-------|
A|-7~~~~-------|
E|-5~~~~-------|

************************************

| x   Dead note
| b   Bend
| ~   Hold note

************************************
Suggest correction
Creating personal tab
Creating personal tab
You can edit any tab online and save it as your Personal.

You can edit, replace or remove any tab part or add personal notes – all changes will be seen only by you.

Personal tabs can be accessed anytime from any device, even offline.
Learn more »
Give kudos to tab author, rate the tab!
1 2 3 4 5
comments
print report bad tab
guest
You may want to rate the tab now too:
select rating
Wanna post a correction for this tab? Suggest correction