Oops, an error
Loading. Please wait.
We have an official King For A Day tab made by UG professional guitarists. Check out the tab »
×
2,508 views 6 this week
2 commentsread comments
1 2 3 4 5
x 5
add to favorites
×
Save as Personal and add changes to this tab that will be seen only by you. Learn more ›
×
You can save this tab as Personal to edit and correct it or add notes. All changes will be seen only by you. Learn more »
launch autoscroll
font size
0
reset
guitar tuner
edit
Autoscroll
slow
fast
+/-
esc
set tempo
stop
Author
Unregistered
Title: King for a Day
Artist: Green Day
Album: Nimrod

I know that this is an easy song to learn the tab to, but it wasn't
posted, so I thought I'd post it. There are only two riffs, and they go
like this. This is a good song to improvise on because it is easy.


G|-----------------------------------|                                        
D|2-------2--------------------------|  
A|-----2-------2-----4------4--------|
E|------------------------4------4---|


Just repeat that until chorus, which is:

G|-----------------------------------|
D|-----------------------------------|
A|-0-0-0-0-0-0-0-0--2-2-2-2-2-2-2-2--|
E|-----------------------------------|

Do that, then to go back to the verse, do this if you want, it will sound
good:

G|-----------------------------------|
D|------------1----------------------|
A|--2-4------------------------------|
E|-----------------------------------|

            
            
Suggest correction
Creating personal tab
Creating personal tab
You can edit any tab online and save it as your Personal.

You can edit, replace or remove any tab part or add personal notes – all changes will be seen only by you.

Personal tabs can be accessed anytime from any device, even offline.
Learn more »
comments
print report bad tab
2 comments total.
0 reply
Orange_shoeS 10 Sep 26, 2005 07:37 AM

It was mostly good. but in the chorus i think it goes
G
D 2
A 2 4 4444444
E 4

But I could be horribly wrong.

0 reply
Orange_shoeS 10 Sep 26, 2005 07:39 AM

ahh. Wtf happened there?
I meant

G ---------------|
D 2--------------|
A --2-4---4444444|
E ------4--------|

guest
Wanna post a correction for this tab? Suggest correction