Oops, an error
Loading. Please wait.

King For A Day Tab

version 3
version 3

Whole song

Interactive

1,536 views 3 this week
no commentswrite comment
1 2 3 4 5
3 more votes to show rating
add to favorites
launch autoscroll
font size
0
reset
how to read this tab
guitar tuner
Autoscroll
slow
fast
+/-
esc
set tempo
stop
Help us to improve Ultimate-Guitar.com Take our survey!
×
Author
Difficulty
-------------------------------------------------------------------------------
                             King for a day – Green Day
-------------------------------------------------------------------------------
Tabbed by:greendaygirly96
Email: greendaygirly96@gmail.com

Tuning: Standard


So this is a great green day song, expressing how the band finds no shame in
:) So basically the whole song goes: E and C#m for the verse, then A B for “Sugar and 
The
for a day” part is the same as the verse then for “just wait til” is A then B, but I’ll 
it out anyway…


Intro/Verse
e|--------------------------4-44-4-44-4-44-4-4x --------------------------|
B|--9-99-9-99-9-99-9-9x ----5-55-5-55-5-55-5-5x --------------------------|
G|--9-99-9-99-9-99-9-9x-----6-66-6-66-6-66-6-6x---------------------------|
D|--9-99-9-99-9-99-9-9x-----6-66-6-66-6-66-6-6x---------------------------|
A|--7-77-7-77-7-77-7-7x-----4-44-4-44-4-44-4-4x---------------------------|
E|------------------------------------------------------------------------|

1.      Started at the age of four
      My mother went to the grocery store
  Went sneaking through her bedroom door
       To find something in a size four


Prelude
e|--------------------------------------------------------------------------|
B|---2-2222-2-2-2222-2---4-4444-4-4-4444-4----------------------------------|
G|---2-2222-2-2-2222-2---4-4444-4-4-4444-4----------------------------------|
D|---2-2222-2-2-2222-2---4-4444-4-4-4444-4----------------------------------|
A|---0-0000-0-0-0000-0---2-2222-2-2-2222-2----------------------------------|
E|--------------------------------------------------------------------------|

     Sugar and spice and evr’ything thing nice wasn’t
    Made for on   -   ly girls
       G.I Joe      in  pantyhose is
   Ma__king room for the one and only

Chorus
e|--------------------------4-44-4-44-4-44-4-4x --------------------------|
B|--9-99-9-99-9-99-9-9x ----5-55-5-55-5-55-5-5x --------------------------|
G|--9-99-9-99-9-99-9-9x-----6-66-6-66-6-66-6-6x---------------------------|
D|--9-99-9-99-9-99-9-9x-----6-66-6-66-6-66-6-6x---------------------------|
A|--7-77-7-77-7-77-7-7x-----4-44-4-44-4-44-4-4x---------------------------|
E|------------------------------------------------------------------------|

    King for a day         Princess by dawn
   King for a day                In a leather thong
    King for a day         Princess by dawn

e|--------------------------------------------------------------------------|
B|---2-22-2-22-2-22-2-2x---4-44-4-44-4-44-4-4x------------------------------|
G|---2-22-2—22-2-22-2-2x---4-44-4-44-4-44-4-4x------------------------------|
D|---2-22-2-22-2-22-2-2x---4-44-4-44-4-44-4-4x------------------------------|
A|---0-00-0-00—0-00-0-0x---2-22-2-22-2-22-2-2x------------------------------|
E|--------------------------------------------------------------------------|

     Just wait til all the guys get a load of me


Repeat intro X2

Verse 2 (Same as Verse 1)

My daddy threw me in therapy.
He thinks I'm not a real man.
Who put the drag in the drag queen.
Don't knock it until you tried it

Prelude

Chorus (Repeat as neccesary)

Intro

End with


e|---4------------------------------------------------------------------------|
B|---5------------------------------------------------------------------------|
G|---6------------------------------------------------------------------------|
D|---6------------------------------------------------------------------------|
A|---4------------------------------------------------------------------------|
E|----------------------------------------------------------------------------|


************************************

| /   slide up
| \   slide down
| h   hammer-on
| p   pull-off
| ~   vibrato
| +   harmonic
| x   Mute note
| b   Bend
| pb  Pre-bend
| br  Bend release
| pbr Pre-bend release
| brb Bend release bend

************************************
Suggest correction
Give kudos to tab author, rate the tab!
1 2 3 4 5
comments
print report bad tab
guest
You may want to rate the tab now too:
select rating
Wanna post a correction for this tab? Suggest correction