Oops, an error
Loading. Please wait.
We have an official Know Your Enemy tab made by UG professional guitarists. Check out the tab »
×
6,308 views 15 this week
no commentswrite comment
1 2 3 4 5
x 4
add to favorites
×
Save as Personal and add changes to this tab that will be seen only by you. Learn more ›
×
You can save this tab as Personal to edit and correct it or add notes. All changes will be seen only by you. Learn more »
launch autoscroll
font size
0
reset
guitar tuner
backing track
0:00
0:00
edit
Autoscroll
slow
fast
+/-
esc
set tempo
stop
Author
Difficulty
-----------------------------------------------------------------------------
Green Day Know Your Enemy
-----------------------------------------------------------------------------
Tuning Standard

Intro (Play Nothing for First 11 Bars)

G|-----------------------------------|
D|-----------------------------------|
A|-----------------------------------|
E|--2---2---2---2---2---2---2---2----|

Verse/Chorus

G|-----------------------------------|-----------------------------------|
D|-----------------------------------|-----------------------------------|
A|-----------------------------------|-----------------------------------|
E|-7-7-7--0-0--7-7--7-7--0-0--7-7-5--|--7-7--0-0--7-7-0--2-2-2-2-2-2-2-2-|

Play Verse/Chorus 7 more times (8 total) last time, last bar is:

G|-----------------------------------|
D|-----------------------------------|
A|-----------------------------------|
E|--2---2---2---2---2---2---2---0----|


Bridge

G|-----------------------------------|-----------------------------------|
D|--2---2---2---2---2---2---2--------|------------------------------2----|
A|------------------------------2----|--2---2---2---2---2---2---2--------|
E|-----------------------------------|-----------------------------------|

G|-----------------------------------|-----------------------------------|
D|--2---2---2---2---2---2---2--------|------------------------------2----|
A|------------------------------2----|--2---2---2---2---2---2---2--------|
E|-----------------------------------|-----------------------------------|

G|-----------------------------------|-----------------------------------|
D|--2---2---2---2---2---2------------|-----------------------------------|
A|--------------------------0---2----|--2---2---2---2---2---2---2--------|
E|-----------------------------------|------------------------------0----|

G|-----------------------------------|-----------------------------------|
D|-----------------------------------|-----------------------------------|
A|-----------------------------------|-----------------------------------|
E|--2--------------------------------|------------------------------12///|


Guitar Solo

G|-----------------------------------|-----------------------------------|
D|-----------------------------------|-----------------------------------|
A|-----------------------------------|-----------------------------------|
E|-7-7-7--0-0--7-7--7-7--0-0--7-7-5--|--7-7--0-0--7-7-0--2-2-2-2-2-2-2-2-|

G|-----------------------------------|-----------------------------------|
D|-----------------------------------|-----------------------------------|
A|-----------------------------------|-----------------------------------|
E|-7-7-7--0-0--7-7--7-7--0-0--7-7-5--|--7-7--0-0--7-7-0--2-2-2-2-2-2-2-2-|

G|-----------------------------------|-----------------------------------|
D|--2---2---2---2---2---2---2--------|------------------------------2----|
A|------------------------------2----|--2---2---2---2---2---2---2--------|
E|-----------------------------------|-----------------------------------|

G|-----------------------------------|-----------------------------------|
D|--2---2---2---2---2---2---2--------|------------------------------2----|
A|------------------------------2----|--2---2---2---2---2---2---2--------|
E|-----------------------------------|-----------------------------------|


G|-----------------------------------|-----------------------------------|
D|--2---2---2---2---2---2------------|-----------------------------------|
A|--------------------------0---2----|--2---2---2---2---2---2///14-------|
E|-----------------------------------|-------------------------------0---|

G|-----------------------------------|
D|-----------------------------------|
A|-----------------------------------|
E|--2--------------------------------|

17 bars of nothing then:

G|-----------------------------------|
D|-----------------------------------|
A|-----------------------------------|
E|-----2---2---2---2---2---2---2-----|


Ending

G|-----------------------------------|
D|-----------------------------------|
A|-----------------------------------|
E|--7///-----------------------------|

Order
11 bars then Intro
Verse/Chorus x7
Bridge
Guitar Solo
17 bars then 
Verse/Chorus x3
Last Time you do the Verse/Chorus the last bar is the Ending Bar
Lyrics
(Intro)
Do you know the Enemy?
Do you know your Enemy?
Well, gotta’ know the Enemy,
Wah hey.

(Chorus x2)
Do you know the Enemy?
Do you know your Enemy?
Well, gotta’ know the Enemy,
Wah hey.
(Verse)
Violence is an energy
Against the enemy
Well Violence is an energy

Bringing on the fury
The choir infantry
Revolt against the honour to obey

Overthrow the effigy
The vast majority
Were Burning down the foreman of control

Silence is the enemy
Against your urgency
So rally up the demons of your soul

(Chorus x2)
(Middle 8)
The insurgency will rise
When the bloods been sacrificed
Don't be blinded by the lies
In your eyes

(Bridge)
Violence is an energy, O wah o way,
From here to eternity, O wah o way,
Violence is an energy, O wah o way,
Silence is the enemy,
So gimme gimme revolution

(Chorus x3)
(End Verse)
Overthrow the effigy
The vast majority
Burning down the foreman of control

Silence is the enemy
Against your urgency
So rally up the demons of your soul


            
            
Suggest correction
Creating personal tab
Creating personal tab
You can edit any tab online and save it as your Personal.

You can edit, replace or remove any tab part or add personal notes – all changes will be seen only by you.

Personal tabs can be accessed anytime from any device, even offline.
Learn more »
comments
print report bad tab
guest
You may want to rate the tab now too:
select rating
Wanna post a correction for this tab? Suggest correction