Oops, an error
Loading. Please wait.
We have an official Know Your Enemy tab made by UG professional guitarists. Check out the tab »
×

Know Your Enemy tab

78,067 views 9 this week
9 commentsread comments
1 2 3 4 5
x 15
add to favorites
×
Save as Personal and add changes to this tab that will be seen only by you. Learn more ›
×
You can save this tab as Personal to edit and correct it or add notes. All changes will be seen only by you. Learn more »
launch autoscroll
font size
0
reset
how to read this tab
guitar tuner
backing track
0:00
0:00
edit
Autoscroll
slow
fast
+/-
esc
set tempo
stop
Author
Know Your Enemy
Green Day 
21st Century Breakdown

[Intro]
                                 x2
E|-----------------|-------------|
B|-----------------|-------------|
G|-------99--------|----99-------|
D|-9~-9--99-99-x-x-|-99-99--99-7-|
A|-9~-9--77-99-x-x-|-99-77--99-7-|
E|-7~-7--77-77-x-x-|-77-77--77-5-|

Do you know the enemy?
D'you know your enemy
E|-------------------|------------|
B|-------------------|------------|
G|--------99---------|----99------|
D|-9~-9---99--99-x-x-|-99-99-99-7-|
A|-9~-9---77--99-x-x-|-99-77-99-7-|
E|-7~-7---77--77-x-x-|-77-77-77-5-|

[Well gotta know the enemy oh hey]
E|-----------------|--------------|
B|-----------------|--------------|
G|-------99--------|--------------|
D|-9~-9--99-99-x-x-|-4444-444-----|
A|-9~-9--77-99-x-x-|-4444-444-----|
E|-7~-7--77-77-x-x-|-2222-222-----|

[Verse]
Do you know the enemy?
D'you know your enemy
E|--------------|-----------|
B|--------------|-----------|
G|----99--------|----99-----|
D|999-99-99-x-x-|-99-99-99-7|
A|999-77-99-x-x-|-99-77-99-7|
E|777-77-77-x-x-|-77-77-77-5|

Well gotta know the enemy 
E|------------|-----------|
B|------------|-----------|
G|----99------|-----------|
D|999-99-99-x-|-4444-4444-|
A|999-77-99-x-|-4444-4444-|
E|777-77-77-x-|-2222-2222-|(x2)

Violence is an energy, against the enemy
E|--------------|-----------|
B|--------------|-----------|
G|----99--------|----99-----|
D|999-99-99-x-x-|-99-99-99-7|
A|999-77-99-x-x-|-99-77-99-7|
E|777-77-77-x-x-|-77-77-77-5|

Violence is an energy
E|------------|-----------|
B|------------|-----------|
G|----99------|-----------|
D|999-99-99-x-|-4444-4444-|
A|999-77-99-x-|-4444-4444-|
E|777-77-77-x-|-2222-2222-|

(Now you basically repeat this guitar part, but with different lyrics)

[Chorus 1]
Do you know the enemy?
D'you know your enemy
E|--------------|-----------|
B|--------------|-----------|
G|----99--------|----99-----|
D|999-99-99-x-x-|-99-99-99-7|
A|999-77-99-x-x-|-99-77-99-7|
E|777-77-77-x-x-|-77-77-77-5|

Well gotta know the enemy oh hey
E|------------|-----------|
B|------------|-----------|
G|----99------|-----------|
D|999-99-99-x-|-4444-4444-|
A|999-77-99-x-|-4444-4444-|
E|777-77-77-x-|-2222-2222-|(x2)

[Post-Chorus]
The insurgency will rise , When the blood's been sacrificed
E|---------------------|--------------------|
B|---------------------|--------------------|
G|99999-99-------------|-99999-99-----------|
D|99999-99-9999-99999--|-99999-99-9999-99999|
A|77777-77-9999-99999--|-77777-77-9999-99999|
E|---------7777-77777--|----------7777-77777|

[Guitar Two]
(Quiet Volume)
                                      (x3)
E|---------------|-------------------|
B|---12------12--|----------12-------|
G|99----99-8-----|-----11------11----|
D|---------------|-999----9--------9v|
A|---------------|-------------------|
E|---------------|-------------------|

Don't be blinded by the lies
E|-------------------|
B|-------------------|
G|99999-99-----------|
D|99999-99-9999-99999|
A|77777-77-9999-99999|
E|---------7777-77777|

In your eyes
E|-------------------------|-----------|
B|-------------------------|-----------|
G|---------------44--------|----44-----|
D|----------4~-4-44-44-x-x-|-44-44-44--|
A|----------4~-4-22-44-x-x-|-44-22-44--|
E|----------2~-2-22-22-x-x-|-22-22-22-0|

[Solo Pt. I]
[Guitar One]
E|--------------|-----------|
B|--------------|-----------|
G|----99--------|----99-----|
D|999-99-99-x-x-|-99-99-99-7|
A|999-77-99-x-x-|-99-77-99-7|
E|777-77-77-x-x-|-77-77-77-5|

E|------------|-----------|
B|------------|-----------|
G|----99------|-----------|
D|999-99-99-x-|-4444-4444-|
A|999-77-99-x-|-4444-4444-|
E|777-77-77-x-|-2222-2222-|(x2)

[Guitar Two:]
E|-------------------------------------11-------|
B|12-12-12----12-12-----------12----12----12----|
G|---------11--------11-11-11----11----------11v|
D|----------------------------------------------|
A|----------------------------------------------|
E|----------------------------------------------|

E|------------------------|-------------------------|
B|12-12-12----12-12-------|-14-14----14-14-----14---|
G|---------11-------11-11-|-------11--------11----11|
D|------------------------|-------------------------|
A|------------------------|-------------------------|
E|------------------------|-------------------------|

[Solo Pt. II]
[Guitar One]
E|---------------------|--------------------|
B|---------------------|--------------------|
G|99999-99-------------|-99999-99-----------|
D|99999-99-9999-99999--|-99999-99-9999-99999|
A|77777-77-9999-99999--|-77777-77-9999-99999|
E|---------7777-77777--|----------7777-77777|

E|-------------------|
B|-------------------|
G|99999-99-----------|
D|99999-99-9999-99999|
A|77777-77-9999-99999|
E|---------7777-77777|

[Guitar Two]
                                     (x3)
E|---------------|-------------------|
B|---12------12--|----------12-------|
G|99----99-8-----|-----11------11----|
D|---------------|-999----9--------9v|
A|---------------|-------------------|
E|---------------|-------------------|

[Post Chorus 2:]

[Guitar Two:]
E|------------------|
B|11-\--------------|
G|11-\--------------|
D|------------------|
A|------------------|
E|------------------|

[Guitar One:]
                                        (x2)
E|-------------------------|-----------|
B|-------------------------|-----------|
G|---------------44--------|----44-----|
D|----------4~-4-44-44-x-x-|-44-44-44--|
A|----------4~-4-22-44-x-x-|-44-22-44--|
E|----------2~-2-22-22-x-x-|-22-22-22-0|

[Violence is an energy]
E|-------------------------|-----------|
B|-------------------------|-----------|
G|---------------44--------|----44-----|
D|----------4~-4-44-44-x-x-|-44-44-44--|
A|----------4~-4-22-44-x-x-|-44-22-44--|
E|----------2~-2-22-22-x-x-|-22-22-22-0|

[From here to eternity]
E|-------------------------|-----------|
B|-------------------------|-----------|
G|---------------44--------|----44-----|
D|----------4~-4-44-44-x-x-|-44-44-44--|
A|----------4~-4-22-44-x-x-|-44-22-44--|
E|----------2~-2-22-22-x-x-|-22-22-22-0|

[Violence is an energy]
E|-------------------------|-----------|
B|-------------------------|-----------|
G|---------------44--------|----44-----|
D|----------4~-4-44-44-x-x-|-44-44-44--|
A|----------4~-4-22-44-x-x-|-44-22-44--|
E|----------2~-2-22-22-x-x-|-22-22-22-0|

[Silence is the enemy so Gimme Gimme REVOLUTION!]
E|-------------------------|-----------|
B|-------------------------|-----------|
G|---------------44--------|----44-----|
D|----------4~-4-44-44-x-x-|-44-44-44--|
A|----------4~-4-22-44-x-x-|-44-22-44--|
E|----------2~-2-22-22-x-x-|-22-22-22-0|

[Outro:]
Bringing on the fury, the choir infantry
Revolt against the hounor to obey,
Overthrow the effigy, the vasr majority
Burning down the foreman of control.

[Guitar One]
E|--------------|-----------|
B|--------------|-----------|
G|----99--------|----99-----|
D|999-99-99-x-x-|-99-99-99-7|
A|999-77-99-x-x-|-99-77-99-7|
E|777-77-77-x-x-|-77-77-77-5|

E|------------|-----------|
B|------------|-----------|
G|----99------|-----------|
D|999-99-99-x-|-4444-4444-|
A|999-77-99-x-|-4444-4444-|
E|777-77-77-x-|-2222-2222-|(x2)

[Guitar Two]
E|-------------------------------------11-------|
B|12-12-12----12-12-----------12----12----12----|
G|---------11--------11-11-11----11----------11v|
D|----------------------------------------------|
A|----------------------------------------------|
E|----------------------------------------------|

E|------------------------|-------------------------|
B|12-12-12----12-12-------|-14-14----14-14-----14---|
G|---------11-------11-11-|-------11--------11----11|
D|------------------------|-------------------------|
A|------------------------|-------------------------|
E|------------------------|-------------------------|(x2)
Cheers for reading.

************************************

| x  Dead note
| ~  Vibrato
| \  Slide down

************************************

            
            
Suggest correction
Creating personal tab
Creating personal tab
You can edit any tab online and save it as your Personal.

You can edit, replace or remove any tab part or add personal notes – all changes will be seen only by you.

Personal tabs can be accessed anytime from any device, even offline.
Learn more »
comments
print report bad tab
9 comments total. Showing first comments.
+1 reply
Cliff Geezer 210 Jun 01, 2009 08:45 AM

nice tab
this is the same tab thts in guitar world
5 stars

0 reply
MacMan2001 40 Jun 08, 2009 08:28 AM

as Tony the Tiger would say, this tab is...

Grrrrrrrrrrrreat!

0 reply
wicked_cyn 10 Jun 08, 2009 04:15 PM

well the tabs great, but the lyrics...

guest
You may want to rate the tab now too:
select rating
Wanna post a correction for this tab? Suggest correction