Oops, an error
Loading. Please wait.

Knowledge bass

version 4
version 4

Whole song

Interactive

995 views 6 this week
1 commentread comment
1 2 3 4 5
x 3
add to favorites
×
Save as Personal and add changes to this tab that will be seen only by you. Learn more ›
×
You can save this tab as Personal to edit and correct it or add notes. All changes will be seen only by you. Learn more »
launch autoscroll
font size
0
reset
guitar tuner
edit
Autoscroll
slow
fast
+/-
esc
set tempo
stop
-------------------------------------------------------------------------------
                             KNOWLEDGE - Green Day
-------------------------------------------------------------------------------
Tabbed by: Guest
E-mail: 

Tuning:Standard (EADG)
  "Wide open road of my future now"
Riff 1
G|--------------------------0-----------|
D|---4-5-7----7-5-4-----2-3-----------0-|
A|-5-------5--------0h3-----------2-3---|
E|----------------------------0h3-------|

Riff 2 
G|---------7----------------0-----------|
D|---4-5-7----7-5-4-----2-3-----------0-|
A|-5----------------0h3-----------2-3---|
E|----------------------------0h3-------|

Riff 3 "We get told to decide"
G|------7------7----7--------5-5h7p5------5------5----------|
D|---------------------5-5h7------------------------------0-|
A|---5----0h5----5---------------------3----0h3-------2-3---|
E|------------------------------------------------0-3-------|

G|------7------7----7--------5-5h7p5--------0---------------|
D|---------------------5-5h7------------2-3---------------0-|
A|---5----0h5----5--------------------3--------------2-3----|
E|----------------------------------------------0-3---------|


After Guitar solo
G|--------------------------------0-----------|
D|----------------------------2-3-----------0-|
A|-5-5-5-5-3-3------5-5-5-5-3-----------2-3---|
E|-------------3--------------------0h3-------|

Notes:
-Riff 1 and Riff 2 alternate- so you play Riff 1 then Riff 2 then Riff 1 then Riff 2 etc.
-The octave notes on the G string in Riff 3 are popped.
 
| /  slide up
| \  slide down
| h  hammer-on
| p  pull-off
| ~  vibrato
| +  harmonic
| x  Mute note
===============================================================================

            
            
Suggest correction
Creating personal tab
Creating personal tab
You can edit any tab online and save it as your Personal.

You can edit, replace or remove any tab part or add personal notes – all changes will be seen only by you.

Personal tabs can be accessed anytime from any device, even offline.
Learn more »
Give kudos to tab author, rate the tab!
1 2 3 4 5
comments
print report bad tab
1 comment total.
0 reply
MasterFailure 681 Nov 28, 2013 10:45 PM

That sounds perfect to me!

guest
Wanna post a correction for this tab? Suggest correction