Oops, an error
Loading. Please wait.

Last Night On Earth Tab

version 2
version 2

Acoustic

Whole song

Interactive

5,826 views 6 this week
no commentswrite comment
1 2 3 4 5
excellent!
x 5
add to favorites
launch autoscroll
font size
0
reset
how to read this tab
guitar tuner
Tab Pro tools
  • play this tab
  • loop segment
  • change instrument
  • show fretboard
  • metronome
×
Best way to learn
"Last Night On Earth"
Autoscroll
slow
fast
+/-
esc
set tempo
stop
Contributor
Difficulty
intermediate
Tabbed by:Mrandrus
Email:

Tuning:Standard


This is how Billie played it live.
Check the vid out here:  http://www.youtube.com/watch?v=IZqa7q7cH20&feature=related

Intro:
     A
e|---0-----------------------------------------------------------------------|
B|---2-------2-------------2-------------2--------------3--------------------|
G|---2-----2---2---------2---2---------2---2----------3---3------------------|
D|---2---2-------2--3--3-------3--4--4-------4--5---5-------5----------------|
A|---0-----------------------------------------------------------------------|
E|---------------------------------------------------------------------------|
    D             Dm              A
e|--2------2------1-------1----------------------------------------------------|
B|--3----3---3----3-----3---3------2-------2------2--------2----2-----2--------|
G|--2--2-------2--2---2-------2----2-------------------------------------------|
D|--0-------------0----------------2----2-----2-2----2--2----2----2-----2------|
A|---------------------------------0-------------------------------------------|
E|-----------------------------------------------------------------------------|
Verse 1:


e|--------------------------------2--2----1--1---------------------------------|
B|----2---2--2---2--2-------------3--3----3--3----2---2------2------2----------|
G|----2---2--2---2--2---3---3-----2--2----2--2----2----------------------------|
D|----2---3--3---4--4---5---5-----0--0----0--0----2--2--2--2---2--2---2--------|
A|----0-------------------------------------------0----------------------------|
E|-----------------------------------------------------------------------------|


e|-------------------------------------2--2---1--1---------------------------|
B|---2----2----2--2--2---2--2----------3--3---3--3--2--2---2---2--2-2--------|
G|-------------2--2--2---2--2---3--3---2--2---2--2--2------------------------|
D|-----2----2--2--3--3---4--4---5--5---0--0---0--0--2-2-2-2-2-2--2-2---------|
A|-------------0-------------------------------------------------------------|
E|---------------------------------------------------------------------------|
Chorus:

e|----2--2---1--1-----------------------------------------2--2---1--1--------|
B|----3--3---3--3----2----2------2--------2------2-----2--3--3---3--3--------|
G|----2--2---2--2----2------------------------------------2--2---2--2--------|
D|----0--0---0--0----2--2---2--2---2---2-----2------2-----0--0---0--0--------|
A|-------------------0-------------------------------------------------------|
E|---------------------------------------------------------------------------|

e|-----------------------------------2--2---1--1---------------2---1---------|
B|--2----2------2-------2----2----2--3--3---3--3---2-----------3---3---------|
G|--2--------------------------------2--2---2--2---2-----------2---2---------|
D|--2--2---2--2---2---2---2----2-----0--0---0--0---2-----------0---0---------|
A|--0----------------------------------------------0-------------------------|
E|----------------------------------------------------3--2--0----------------|

Turn Around: Same as intro

Verse 2:

e|--0--X---------------------------------------------------------------------|
B|--0--X------------------------------3--3----3--3--2----2------2------2-----|
G|--0--X---2--2--2--2---2--2---3--3---2--2----2--2--2------------------------|
D|--0--X---2--2--3--3---4--4---5--5-----------------2--2---2--2---2--2---2---|
A|--0--X---------------------------------------------------------------------|
E|---------------------------------------------------------------------------|

e|---------------------------------------------------------------------------|
B|---2---2-----------------------------3--3---3--3-2--2------2------2--2-2---|
G|------------2--2--2--2--2---3--3-----2--2---2--2-2-------------------------|
D|-----2---2--2--3--3--4--4---5--5-----------------2-2--2--2---2--2---2-2----|
A|---------------------------------------------------------------------------|
E|---------------------------------------------------------------------------|

Play Chorus


 Play intro 2X as solo

then chorus 1 more time
comments
print report bad tab
I want to post or [tab]
guest
You may want to rate the tab now too:
select rating
Please do not post tabs as comments. Select "correction" instead!