Oops, an error
Loading. Please wait.

Last Of The American Girls Bass Tab

version 1
version 1

Whole song

Interactive

42,890 views 42 this week
2 commentsread comments
1 2 3 4 5
excellent!
x 15
add to favorites
launch autoscroll
font size
0
reset
guitar tuner
Tab Pro tools
  • play this tab
  • loop segment
  • change instrument
  • show fretboard
  • metronome
×
Best way to learn
"Last Of The American Girls"
Autoscroll
slow
fast
+/-
esc
set tempo
stop
Contributor
-------------------------------------------------------------------------------
		      Last of the American Girls-Green Day
-------------------------------------------------------------------------------

Tabbed By:Stjimmy34 
Tuning:Standard

Intro
G|---------------------------------------------------------------------------|
D|---------------------------------------------------------------------------|
A|-2(x16)--------------------------------------------------------------------|
E|---------------------------------------------------------------------------|

Verse
G|---------------------------------------------------------------------------|
D|---------------------------------------------------------------------------|
A|-2(x16)--/7(x16)--2(x16)--/9(x16)--2(x16)--/7(x16)--2(x8)--/9(x8)--2(x15)--|
E|---------------------------------------------------------------------------|

Verse 2
G|-----------------------------------------------------------------------------|
D|-----------------------------------------------------------------------------|
A|-2(x16)--/7(x16)--2(x16)--/9(x16)--2(x16)--/7(x16)--2(x16)--/9(x9)--77-66-44-|
E|-----------------------------------------------------------------------------|

Chorus
G|---------------------------------------------------------------------------|
D|---------------------------------------------------------------------------|
A|-14(x16)--7(x16)--14(x8)--9-9-9--------------------------------------------|
E|---------------------------------------------------------------------------|

Pre-verse
G|---------------------------------------------------------------------------|
D|--------222-1--------------------------------------------------------------|
A|-222-4---------(x4)--------------------------------------------------------|
E|---------------------------------------------------------------------------|

Verse 2

Pre-verse

Guitar solo x2
G|---------------------------------------------------------------------------|
D|---------------------------------------------------------------------------|
A|-2(x16)--/7(x16)--2(x16)--/9(x9)-77-66-44----------------------------------|
E|---------------------------------------------------------------------------|

Chorus
G|---------------------------------------------------------------------------|
D|---------------------------------------------------------------------------|
A|-14(x16)--7(x16)--14(x16)--9(x16)--14(x16)--7(x16)--14(x8)--9-9-9----------|
E|---------------------------------------------------------------------------|

Pre-verse x8

End on B

| /  slide up
| \  slide down
| h  hammer-on
| p  pull-off
| ~  vibrato
| +  harmonic
| x  Mute note
===============================================================================
comments
print report bad tab
2 comments total.
0 reply
PsychoGAA wrote on July 16 2010, 01:36 am

the pre-verse is :
G|----------------------------------------|
D|----------------------------------------|
A|-2-2-2-2\7-7-7-7/2-2-2-2\7-7-7-7--------|
E|----------------------------------------|
- I guess...

0 reply
jacque2001 wrote on August 21 2013, 04:59 am

0 reply
PsychoGAA wrote on July 16 2010, 01:36 am
the pre-verse is :
G|----------------------------------------|
D|----------------------------------------|
A|-2-2-2-2\7-7-7-7/2-2-2-2\7-7-7-7--------|
E|----------------------------------------|
- I guess...
-------------------------------------------
Or try this (same notes just easier to play)
G|----------------------------------------|
D|--------2-2-2-2--------2-2-2-2----------|
A|-2-2-2-2--------2-2-2-2-----------------|
E|----------------------------------------|

I want to post or [tab]
guest
You may want to rate the tab now too:
select rating
Please do not post tabs as comments. Select "correction" instead!