Oops, an error
Loading. Please wait.
We have an official Last Of The American Girls tab made by UG professional guitarists. Check out the tab »
×
44,645 views 30 this week
2 commentsread comments
1 2 3 4 5
x 15
add to favorites
×
Save as Personal and add changes to this tab that will be seen only by you. Learn more ›
launch autoscroll
font size
0
reset
guitar tuner
backing track
0:00
0:00
Autoscroll
slow
fast
+/-
esc
set tempo
stop
Author
-------------------------------------------------------------------------------
		      Last of the American Girls-Green Day
-------------------------------------------------------------------------------

Tabbed By:Stjimmy34 
Tuning:Standard

Intro
G|---------------------------------------------------------------------------|
D|---------------------------------------------------------------------------|
A|-2(x16)--------------------------------------------------------------------|
E|---------------------------------------------------------------------------|

Verse
G|---------------------------------------------------------------------------|
D|---------------------------------------------------------------------------|
A|-2(x16)--/7(x16)--2(x16)--/9(x16)--2(x16)--/7(x16)--2(x8)--/9(x8)--2(x15)--|
E|---------------------------------------------------------------------------|

Verse 2
G|-----------------------------------------------------------------------------|
D|-----------------------------------------------------------------------------|
A|-2(x16)--/7(x16)--2(x16)--/9(x16)--2(x16)--/7(x16)--2(x16)--/9(x9)--77-66-44-|
E|-----------------------------------------------------------------------------|

Chorus
G|---------------------------------------------------------------------------|
D|---------------------------------------------------------------------------|
A|-14(x16)--7(x16)--14(x8)--9-9-9--------------------------------------------|
E|---------------------------------------------------------------------------|

Pre-verse
G|---------------------------------------------------------------------------|
D|--------222-1--------------------------------------------------------------|
A|-222-4---------(x4)--------------------------------------------------------|
E|---------------------------------------------------------------------------|

Verse 2

Pre-verse

Guitar solo x2
G|---------------------------------------------------------------------------|
D|---------------------------------------------------------------------------|
A|-2(x16)--/7(x16)--2(x16)--/9(x9)-77-66-44----------------------------------|
E|---------------------------------------------------------------------------|

Chorus
G|---------------------------------------------------------------------------|
D|---------------------------------------------------------------------------|
A|-14(x16)--7(x16)--14(x16)--9(x16)--14(x16)--7(x16)--14(x8)--9-9-9----------|
E|---------------------------------------------------------------------------|

Pre-verse x8

End on B

| /  slide up
| \  slide down
| h  hammer-on
| p  pull-off
| ~  vibrato
| +  harmonic
| x  Mute note
===============================================================================
Suggest correction
comments
print report bad tab
2 comments total.
0 reply
PsychoGAA 52 Jul 15, 2010 09:36 PM

the pre-verse is :
G|----------------------------------------|
D|----------------------------------------|
A|-2-2-2-2\7-7-7-7/2-2-2-2\7-7-7-7--------|
E|----------------------------------------|
- I guess...

guest
You may want to rate the tab now too:
select rating
Wanna post a correction for this tab? Suggest correction