Oops, an error
Loading. Please wait.

Last Of The American Girls Tab

version 1
version 1

Whole song

Interactive

Video

88,247 views 54 this week
no commentswrite comment
1 2 3 4 5
accurate
x 13
add to favorites
launch autoscroll
font size
0
reset
how to read this tab
guitar tuner
Autoscroll
slow
fast
+/-
esc
set tempo
stop
Help us to improve Ultimate-Guitar.com Take our survey!
×
Author
-------------------------------------------------------------------------------
                     Last of the American Girls-Green Day
-------------------------------------------------------------------------------
Tabbed by:Stjimmy34
Tuning:Standard

Verse x2

 Starts on "She wears her overcoat"
e|---------------------------------------------------------------------------|
B|---------------------------------------------------------------------------|
G|---------------------------------------------------------------------------|
D|---------------------------------------------------------------------------|
A|-------------------7777777-7-66-77-99--------------------------------------|
E|-7777777777777777----------------------777777777777777--2222222222222222---|

Chorus

Guitar 1
e|---------------------------------------------------------------------------|
B|---------------------------88888888----------------------------------------|
G|-------------------9999999999999999----------------------------------------|
D|-9999999999999999--9999999999999999--99999999--444-------------------------|
A|-9999999999999999--7777777777777777--99999999--444-------------------------|
E|-7777777777777777--------------------77777777--222-------------------------|

Guitar 2
e|---------------------------------------------------------------------------|
B|---------------------------------------------------------------------------|
G|-1616161616161616-1414141414141414-13131313-161616--13-1212121212121212----|
D|--x-x-x-x-x-x-x-x--x-x-x-x-x-x-x-x--x-x-x-x--x-x-x--x--x-x-x-x-x-x-x-x-----|
A|-1414141414141414-1212121212121212-11111111-141414--11-1010101010101010----|
E|---------------------------------------------------------------------------|

e|---------------------------------------------------------------------------|
B|---------------------------------------------------------------------------|
G|-1616161616161616-111111---------------------------------------------------|
D|--x-x-x-x-x-x-x-x-x-x-x----------------------------------------------------|
A|-1414141414141414-9-9-9----------------------------------------------------|
E|---------------------------------------------------------------------------|


Pre-Verse x4

Guitar 1
e|---------------------------------------------------------------------------|
B|---------------------------------------------------------------------------|
G|------9999-----------------------------------------------------------------|
D|-9999-9999-----------------------------------------------------------------|
A|-9999-7777-----------------------------------------------------------------|
E|-7777----------------------------------------------------------------------|

Guitar 2
e|---------------------------------------------------------------------------|
B|----7---9-7----------------------------------------------------------------|
G|-88---8--------------------------------------------------------------------|
D|---------------------------------------------------------------------------|
A|---------------------------------------------------------------------------|
E|---------------------------------------------------------------------------|


Verse 2 x2

Guitar 1
e|-----------------------------------------------------------------------------|
B|-----------------------------------------------------------------------------|
G|-----------------------------------------------------------------------------|
D|-------------------99999999-9-88-99-1111-------------------------------------|
A|-9999999999999999--77777777-7-66-77--9-9--9999999999999999--4444444444444444-|
E|-7777777777777777-------------------------7777777777777777--2222222222222222-|

Guitar 2
e|--22--22--22--22------------------22--22--22--22--66--66--66--66-----------|
B|--44--44--44--44--55--55--55--55--44--44--44--44--77--77--77--77-----------|
G|--44--44--44--44--44--44--44--44--44--44--44--44--66--66--66--66-----------|
D|--44--44--44--44--22--22--22--22--44--44--44--44---------------------------|
A|---------------------------------------------------------------------------|
E|---------------------------------------------------------------------------|


Chorus

Pre-verse x4


Solo x2

Guitar 1
e|-----------------------------------------------------------------------------|
B|-----------------------------------------------------------------------------|
G|----------------------------9-88-99-1111-------------------------------------|
D|-------------------99999999-x-xx-xx--x-x-------------------------------------|
A|-9999999999999999--77777777-7-66-77--9-9--9999999999999999--4444444444444444-|
E|-7777777777777777-------------------------7777777777777777--2222222222222222-|

Guitar 2
e|---------------------------------------------------------------------------|
B|---------4-5-4-------------4-5-4----------9-10-9------------9-10-9---------|
G|-----4---------4-------4---------4-----9---------9------9----------9-------|
D|---4---4-------------4---4-----------9--9-------------9---9----------------|
A|-2-----------------2---------------7----------------7----------------------|
E|---------------------------------------------------------------------------|

e|---------------------------------------------------------------------------|
B|---------4-5-4------------4-5-4--------------------------------------------|
G|-----4---------4------4---------4-----3---b4-3----3---b4-------------------|
D|---4---4------------4---4-----------4---4-------4---4----4-----------------|
A|-2----------------2--------------------------------------------------------|
E|---------------------------------------------------------------------------|


Chorus

Guitar 1
e|---------------------------------------------------------------------------|
B|---------------------------88888888----------------------------------------|
G|-------------------9999999999999999----------------------------------------|
D|-9999999999999999--9999999999999999--9999999999999999--4444444444444444----|
A|-9999999999999999--7777777777777777--9999999999999999--4444444444444444----|
E|-7777777777777777--------------------7777777777777777--2222222222222222----|

e|---------------------------------------------------------------------------|
B|---------------------------88888888----------------------------------------|
G|-------------------9999999999999999----------------------------------------|
D|-9999999999999999--9999999999999999--99999999--444-------------------------|
A|-9999999999999999--7777777777777777--99999999--444-------------------------|
E|-7777777777777777--------------------77777777--222-------------------------|


Guitar 2
e|---------------------------------------------------------------------------|
B|---------------------------------------------------------------------------|
G|-1616161616161616-1414141414141414-13131313-161616--13-1212121212121212----|
D|--x-x-x-x-x-x-x-x--x-x-x-x-x-x-x-x--x-x-x-x--x-x-x--x--x-x-x-x-x-x-x-x-----|
A|-1414141414141414-1212121212121212-11111111-141414--11-1010101010101010----|
E|---------------------------------------------------------------------------|

e|---------------------------------------------------------------------------|
B|---------------------------------------------------------------------------|
G|-1616161616161616-1414141414141414-1111111111111111-1515151515151515-------|
D|--x-x-x-x-x-x-x-x--x-x-x-x-x-x-x-x-x-x-x-x-x-x-x-x--x-x-x-x-x-x-x-x--------|
A|-1414141414141414-1212121212121212-9-9-9-9-9-9-9-9--1313131313131313-------|
E|---------------------------------------------------------------------------|

e|---------------------------------------------------------------------------|
B|---------------------------------------------------------------------------|
G|-1616161616161616-1414141414141414-13131313-161616--13-1212121212121212----|
D|--x-x-x-x-x-x-x-x--x-x-x-x-x-x-x-x--x-x-x-x--x-x-x--x--x-x-x-x-x-x-x-x-----|
A|-1414141414141414-1212121212121212-11111111-141414--11-1010101010101010----|
E|---------------------------------------------------------------------------|

e|---------------------------------------------------------------------------|
B|---------------------------------------------------------------------------|
G|-1616161616161616-111111---------------------------------------------------|
D|--x-x-x-x-x-x-x-x-x-x-x----------------------------------------------------|
A|-1414141414141414-9-9-9----------------------------------------------------|
E|---------------------------------------------------------------------------|

Pre-verse x8

End on B

| /  slide up
| \  slide down
| h  hammer-on
| p  pull-off
| ~  vibrato
| +  harmonic
| x  Mute note
===============================================================================
Suggest correction
What's this?
You can suggest a correction to this tab. Community and Mods will review your correction and vote to approve or reject it.
comments
print report bad tab
guest
You may want to rate the tab now too:
select rating
Please do not post tabs as comments. Select "correction" instead!