Oops, an error
Loading. Please wait.

Last Of The American Girls Tab

version 3
version 3

Whole song

Interactive

Video

2,783 views 1 this week
no commentswrite comment
1 2 3 4 5
please rate
add to favorites
launch autoscroll
font size
0
reset
how to read this tab
guitar tuner
Autoscroll
slow
fast
+/-
esc
set tempo
stop
Help us to improve Ultimate-Guitar.com Take our survey!
×
Author
Difficulty
novice
Hey, ive seen people tab this all on the a string but this song has a lot of treble in 
so its better to use the d string too.

Hope you like the tab!!

Intro/Verse 1
G-----------------------------------------------------------------|
D------------------------------2(X15)-------------4(X15)----------|
A-----------0-2(X15)-0-2(X16)----------0-2(X16)-----------0-------|
E----12/3---------------------------------------------------------|

G-----------------------------------------------------------------|
D-------------2(X15)----------4(X7)-------------------------------|
A----2(X16)---------0-2(X8)---------0-2(X14)----0--2--------------|
E-----------------------------------------------------------------|

(Drums/guitar come in)

Verse 2

NB the D-2-11-22-44 part is optional, but i like it so i put it in

G-----------------------------------------------------------------|
D-------------2(X8)-2-1-1-2-2-4-4------------4(X15)---------------|
A---2(X16)-------------------------0-2(X16)------------0----------|
E-----------------------------------------------------------------|

G-----------------------------------------------------------------|
D-------------2(X8)-2-1-1-2-2-4-4------------4(X8)-4-2-2-1-1------|
A---2(X16)-------------------------0-2(X16)-----------------4-4-2-|
E-----------------------------------------------------------------|

Chorus (i've made it a bit more interesting/challenging)

G-----------------------------------------------------------------|
D---9(X6)------9(X8)---------------------------------9(X8)--------|
A-----------9-------7-7-7-------7-7--7-7-7-------7-7-------9-9-9--|
E---------7---------------0-0-0------------0-0-0------------------|

G-----------------------------------------------------------------|
D--(--------2-2-2--)----------------------------------------------|
A--(2-2-2-4-------0)---(X4)---------------------------------------|
E-----------------------------------------------------------------|


Verse 3: repeat verse 2
Chorus (repeat)

Guitar Solo:
G-----------------------------------------------------------------|
D---------2(X8)-2-1-1-2-2-4-4---------------------2-2-1-1---------|
A--2(X16)----------------------0-2(X15)-0-----------------4-4-0---|
E-----------------------------------------2(X8)-2-----------------|

G-----------------------------------------------------------------|
D---------2(X8)-2-1-1-2-2-4-4---------------------2-2-1-1---------|
A--2(X16)----------------------0-2(X15)-0-----------------4-4-0---|
E-----------------------------------------2(X8)-2-----------------|

Next chorus

^ = HAMMER ON
~ = HOLD NOTE

G-----------------------------------------------------------------|
D--9(X6)-----9(X8)------------------------------------------------|
A----------9-------7-7-7-------7-7--7-7-7-------7-7---------------|
E--------7--------------0-0-0------------0-0-0--------------------|

G-----------------------------------------------------------------|
D--9-9-9--------9-9--9-9-9----------------------------------------|
A--------------------------------7^9-9(X8)-----7^9-9(X4)----------|
E--------7-7-7-------------7-7-9-----------7^9--------------------|

G-----------------------------------------------------------------|
D--9(X6)-----9(X8)-----------------------------------9(X8)--------|
A----------9-------7-7-7-------7-7--7-7-7-------7-7--------9-9-9--|
E--------7--------------0-0-0------------0-0-0--------------------|

G-----------------------------------------------------------------|
D--(--------2-2-2--)----------------------------------------------|
A--(2-2-2-4-------0)---(X8)--2~~~~--------------------------------|
E-----------------------------------------------------------------|

So thats it!!!
hope you like it, i sure do!!!
Comment and rate pls!!!
Suggest correction
What's this?
You can suggest a correction to this tab. Community and Mods will review your correction and vote to approve or reject it.
comments
We did not receive enough feedback on this tab! Please rate:
print report bad tab
1 2 3 4 5
guest
You may want to rate the tab now too:
select rating
Please do not post tabs as comments. Select "correction" instead!