Oops, an error
Loading. Please wait.
We have an official Last Of The American Girls tab made by UG professional guitarists. Check out the tab »
×

Last Of The American Girls tab

version 5
version 5

Whole song

Interactive

Video

  • High quality, easy to follow video lesson.
73 views 1 this week
1 commentread comment
1 2 3 4 5
3 more votes to show rating
add to favorites
×
Save as Personal and add changes to this tab that will be seen only by you. Learn more ›
×
You can save this tab as Personal to edit and correct it or add notes. All changes will be seen only by you. Learn more »
launch autoscroll
font size
0
reset
how to read this tab
guitar tuner
backing track
0:00
0:00
edit
Autoscroll
slow
fast
+/-
esc
set tempo
stop
Author
About this tab version
My tab is full complete and has all the lyrics. Was this info helpful? Yes No
LAST OF THE AMERICAN GIRLS

[Verse]
e|----------------------------------------|
B|----------------------------------------|
G|----------------------------------------|
D|----------------------------------------|
A|--2-2-2-2--2-2-2-2--2-2-2-2--2-2-2-2----|
E|----------------------------------------|

                         SHE PUTS HER

e|----------------------------------------------------------------------------|
B|----------------------------------------------------------------------------|
G|----------------------------------------------------------------------------|
D|----------------------------------------------------------------------------|
A|--2-2-2-2--2-2-2-2--2-2-2-2--2-2-2-2---7-7-7-7--7-7-7-7--7-7-7-7--7-7-7-7---|
E|----------------------------------------------------------------------------|
 MAKEUP ON LIKE GRAFFITI ON THE WALLS   HEARTLAND
 OF THE
                                       
e|------------------------------------------------------------------------------|
B|------------------------------------------------------------------------------|
G|------------------------------------------------------------------------------|
D|------------------------------------------------------------------------------|
A|--2-2-2-2--2-2-2-2--2-2-2-2--2-2-2-2-----9-9-9-9--9-9-9-9--9-9-9-9--9-9-9-9---|
E|------------------------------------------------------------------------------|
SHE’S GOT HER LITTLE BOOK OF CONSPIRACIES  HAND
RIGHT IN HER  

e|----------------------------------------------------------------------------|
B|----------------------------------------------------------------------------|
G|----------------------------------------------------------------------------|
D|----------------------------------------------------------------------------|
A|--2-2-2-2--2-2-2-2--2-2-2-2--2-2-2-2---7-7-7-7--7-7-7-7--7-7-7-7--7-7-7-7---|
E|----------------------------------------------------------------------------|
SHE IS PARANOID ENDANGERED SPECIES      EXTINCTION
HEADED INTO 

e|------------------------------------------------------------------------------|
B|------------------------------------------------------------------------------|
G|------------------------------------------------------------------------------|
D|------------------------------------------------------------------------------|
A|--2-2-2-2--2-2-2-2-----9-9-9-9--9-9-9-9-----2-2-2-2--2-2-2-2--2-2-2-2-2-------|
E|------------------------------------------------------------------------------|
SHE’S A ONE OF A KIND   LAST OF THE AMERICAN
WELL SHE’S THE          GIRLS     
   
[Verse]
e|--7-7-7-7--7-7-7-7--7-7-7-7--7-7-7-7--x-x-x-x--x-x-x-x--x-x-x-x--x-x-x-x--|
B|--7-7-7-7--7-7-7-7--7-7-7-7--7-7-7-7--9-9-9-9--9-9-9-9--9-9-9-9--9-9-9-9--|
G|--8-8-8-8--8-8-8-8--8-8-8-8--8-8-8-8--9-9-9-9--9-9-9-9--9-9-9-9--9-9-9-9--|
D|--9-9-9-9--9-9-9-9--9-9-9-9--9-9-9-9--9-9-9-9--9-9-9-9--9-9-9-9--9-9-9-9--|
A|--9-9-9-9--9-9-9-9--9-9-9-9--9-9-9-9--7-7-7-7--7-7-7-7--7-7-7-7--7-7-7-7--|
E|--7-7-7-7--7-7-7-7--7-7-7-7--7-7-7-7--x-x-x-x--x-x-x-x--x-x-x-x--x-x-x-x--|
SHE WEARS HER OVER COAT FOR THE COMING  WINTER
OF THE NUCLEAR 
                                 
e|--7-7-7-7--7-7-7-7--7-7-7-7--7-7-7-7---2-2-2-2--2-2-2-2--2-2-2-2--2-2-2-2--|
B|--7-7-7-7--7-7-7-7--7-7-7-7--7-7-7-7---2-2-2-2--2-2-2-2--2-2-2-2--2-2-2-2--|
G|--8-8-8-8--8-8-8-8--8-8-8-8--8-8-8-8---3-3-3-3--3-3-3-3--3-3-3-3--3-3-3-3--|
D|--9-9-9-9--9-9-9-9--9-9-9-9--9-9-9-9---4-4-4-4--4-4-4-4--4-4-4-4--4-4-4-4--|
A|--9-9-9-9--9-9-9-9--9-9-9-9--9-9-9-9---4-4-4-4--4-4-4-4--4-4-4-4--4-4-4-4--|
E|--7-7-7-7--7-7-7-7--7-7-7-7--7-7-7-7---2-2-2-2--2-2-2-2--2-2-2-2--2-2-2-2--|
SHE IS RIDING HER BIKE LIKE THE FUGITIVE MASS
OF CRITICAL

e|--7-7-7-7--7-7-7-7--7-7-7-7--7-7-7-7--x-x-x-x--x-x-x-x--x-x-x-x--x-x-x-x--|
B|--7-7-7-7--7-7-7-7--7-7-7-7--7-7-7-7--9-9-9-9--9-9-9-9--9-9-9-9--9-9-9-9--|
G|--8-8-8-8--8-8-8-8--8-8-8-8--8-8-8-8--9-9-9-9--9-9-9-9--9-9-9-9--9-9-9-9--|
D|--9-9-9-9--9-9-9-9--9-9-9-9--9-9-9-9--9-9-9-9--9-9-9-9--9-9-9-9--9-9-9-9--|
A|--9-9-9-9--9-9-9-9--9-9-9-9--9-9-9-9--7-7-7-7--7-7-7-7--7-7-7-7--7-7-7-7--|
E|--7-7-7-7--7-7-7-7--7-7-7-7--7-7-7-7--x-x-x-x--x-x-x-x--x-x-x-x--x-x-x-x--|
SHE’S ON A HUNGER STRIKE FOR THE ONES   DINNER
WHO WON’T MAKE IT FOR 
                                 
e|--7-7-7-7--7-7-7-7--7-7-7-7--7-7-7-7-----2-2-2-2--2-2-2-2--2-2-2-2--2-2-2-2--|
B|--7-7-7-7--7-7-7-7--7-7-7-7--7-7-7-7-----2-2-2-2--2-2-2-2--2-2-2-2--2-2-2-2--|
G|--8-8-8-8--8-8-8-8--8-8-8-8--8-8-8-8-----3-3-3-3--3-3-3-3--3-3-3-3--3-3-3-3--|
D|--9-9-9-9--9-9-9-9--9-9-9-9--9-9-9-9-----4-4-4-4--4-4-4-4--4-4-4-4--4-4-4-4--|
A|--9-9-9-9--9-9-9-9--9-9-9-9--9-9-9-9-----4-4-4-4--4-4-4-4--4-4-4-4--4-4-4-4--|
E|--7-7-7-7--7-7-7-7--7-7-7-7--7-7-7-7-----2-2-2-2--2-2-2-2--2-2-2-2--2-2-2-2--|
SHE MAKES ENOUGH TO SURVIVE FOR A HOLIDAY  CLASS
OF WORKING         

[Chorus]
e|--7-7-7-7--7-7-7-7--7-7-7-7--7-7-7-7--x-x-x-x--x-x-x-x--7-7-7-7--7-7-7-7--|
B|--7-7-7-7--7-7-7-7--7-7-7-7--7-7-7-7--9-9-9-9--9-9-9-9--8-8-8-8--8-8-8-8--|
G|--8-8-8-8--8-8-8-8--8-8-8-8--8-8-8-8--9-9-9-9--9-9-9-9--9-9-9-9--9-9-9-9--|
D|--9-9-9-9--9-9-9-9--7-7-7-7--7-7-7-7--9-9-9-9--9-9-9-9--9-9-9-9--9-9-9-9--|
A|--9-9-9-9--9-9-9-9--9-9-9-9--9-9-9-9--7-7-7-7--7-7-7-7--7-7-7-7--7-7-7-7--|
E|--7-7-7-7--7-7-7-7--7-7-7-7--7-7-7-7--x-x-x-x--x-x-x-x--x-x-x-x--x-x-x-x--|
SHE’S A RUNAWAY OF    ESTABLISHMENT     INCORPORATED 
THE
                                
e|--7-7-7-7--7-7-7-7---------------------2-2-2---|
B|--7-7-7-7--7-7-7-7---------------------2-2-2---|
G|--8-8-8-8--8-8-8-8---------------------3-3-3---|
D|--9-9-9-9--9-9-9-9---------------------4-4-4---|
A|--9-9-9-9--9-9-9-9---------------------4-4-4---|
E|--7-7-7-7--7-7-7-7---------------------2-2-2---|
SHE WON’T COOPERATE WELL SHE THE LAST    GIRLS
OF THE AMERICAN

e|--7-7-7-X--x-x-x-X--7-7-7-X--x-x-x-X--7-7-7-X--x-x-x-X--7-7-7-X--x-x-x-X--|
B|--7-7-7-X--9-9-9-X--9-9-9-X--9-9-9-X--7-7-7-X--9-9-9-X--7-7-7-X--9-9-9-X--|
G|--8-8-8-X--9-9-9-X--8-8-8-X--9-9-9-X--8-8-8-X--9-9-9-X--8-8-8-X--9-9-9-X--|
D|--9-9-9-X--9-9-9-X--9-9-9-X--9-9-9-X--9-9-9-X--9-9-9-X--9-9-9-X--9-9-9-X--|
A|--9-9-9-X--7-7-7-X--9-9-9-X--7-7-7-X--9-9-9-X--7-7-7-X--9-9-9-X--7-7-7-X--|
E|--7-7-7-X--x-x-x-X--7-7-7-X--x-x-x-X--7-7-7-X--x-x-x-X--7-7-7-X--x-x-x-X--|
                                                              SHE PLAY HER

e|---------------------------------------------------------|
B|----7---9--7------7---9--7----7---9--7------7---9--7-----|
G|--8--8--------8-8---8-------8---8-------8-8---8----------|
D|---------------------------------------------------------|
A|---------------------------------------------------------|
E|---------------------------------------------------------|

e|---------------------------------------------------------|
B|----7---9--7------7---9--7----7---9--7------7---9--7-----|
G|--8--8--------8-8---8-------8---8-------8-8---8----------|
D|---------------------------------------------------------|
A|---------------------------------------------------------|
E|---------------------------------------------------------|

[Verse]
e|--2--2----------2--2----------------2--2----2--2-------4-4---4-4---4-4---4-4---|
B|--4--4----------4--4----------------4--4----4--4-------5-5---5-5---5-5---5-5---|
G|--4--4----------4--4----------------4--4----4--4-------4-4---4-4---4-4---4-4---|
D|-------------------------------------------------------------------------------|
A|-------------------------------------------------------------------------------|
E|-------------------------------------------------------------------------------|
   VINYL RECORDS SINGING SONGS ON THE EVE OF DESTRUCTION           SHE’S A SUCKER

e|--2--2---------2--2---------------2--2---------2--2-----2-2--2-2--2-2--2-2---|
B|--4--4---------4--4---------------4--4---------4--4-----2-2--2-2--2-2--2-2---|
G|--4--4---------4--4---------------4--4---------4--4-----3-3--3-3--3-3--3-3---|
D|-----------------------------------------------------------------------------|
A|-----------------------------------------------------------------------------|
E|-----------------------------------------------------------------------------|
   FOR           ALL THE CRIMINALS BREAKING THE LAWS           SHE WILL COME IN

e|--2--2----------2--2---2--2----2--2------------4-4---4-4---4-4---4-4-----------|
B|--4--4----------4--4---4--4----4--4------------5-5---5-5---5-5---5-5-----------|
G|--4--4----------4--4---4--4----4--4------------4-4---4-4---4-4---4-4-----------|
D|-------------------------------------------------------------------------------|
A|-------------------------------------------------------------------------------|
E|-------------------------------------------------------------------------------|
   FIRST FOR THE END OF WESTERN CIVILIZATION                             SHE’S AN 

e|--2--2---------2--2---------------2--2---------2--2-----2-2--2-2--2-2--2-2---|
B|--4--4---------4--4---------------4--4---------4--4-----2-2--2-2--2-2--2-2---|
G|--4--4---------4--4---------------4--4---------4--4-----3-3--3-3--3-3--3-3---|
D|-----------------------------------------------------------------------------|
A|-----------------------------------------------------------------------------|
E|-----------------------------------------------------------------------------|
   ENDLESS WAR SHE’S A HERO OF THE LOST CAUSE

[Chorus]
e|--7-7-7-7--7-7-7-7--7-7-7-7--7-7-7-7--x-x-x-x--x-x-x-x--7-7-7-7--7-7-7-7--|
B|--7-7-7-7--7-7-7-7--7-7-7-7--7-7-7-7--9-9-9-9--9-9-9-9--8-8-8-8--8-8-8-8--|
G|--8-8-8-8--8-8-8-8--8-8-8-8--8-8-8-8--9-9-9-9--9-9-9-9--9-9-9-9--9-9-9-9--|
D|--9-9-9-9--9-9-9-9--7-7-7-7--7-7-7-7--9-9-9-9--9-9-9-9--9-9-9-9--9-9-9-9--|
A|--9-9-9-9--9-9-9-9--9-9-9-9--9-9-9-9--7-7-7-7--7-7-7-7--7-7-7-7--7-7-7-7--|
E|--7-7-7-7--7-7-7-7--7-7-7-7--7-7-7-7--x-x-x-x--x-x-x-x--x-x-x-x--x-x-x-x--|
   LIKE A HURRICANE  HEART OF THE      DEVASTATION
   IN THE 
                                 
e|--7-7-7-7--7-7-7-7---------------------2-2-2---|
B|--7-7-7-7--7-7-7-7---------------------2-2-2---|
G|--8-8-8-8--8-8-8-8---------------------3-3-3---|
D|--9-9-9-9--9-9-9-9---------------------4-4-4---|
A|--9-9-9-9--9-9-9-9---------------------4-4-4---|
E|--7-7-7-7--7-7-7-7---------------------2-2-2---|
SHE’S A NATURAL DISASTER SHE’S THE LAST  GIRLS
OF THE AMERICAN

e|--7-7-7-X--x-x-x-X--7-7-7-X--x-x-x-X--7-7-7-X--x-x-x-X--7-7-7-X--x-x-x-X--|
B|--7-7-7-X--9-9-9-X--9-9-9-X--9-9-9-X--7-7-7-X--9-9-9-X--7-7-7-X--9-9-9-X--|
G|--8-8-8-X--9-9-9-X--8-8-8-X--9-9-9-X--8-8-8-X--9-9-9-X--8-8-8-X--9-9-9-X--|
D|--9-9-9-X--9-9-9-X--9-9-9-X--9-9-9-X--9-9-9-X--9-9-9-X--9-9-9-X--9-9-9-X--|
A|--9-9-9-X--7-7-7-X--9-9-9-X--7-7-7-X--9-9-9-X--7-7-7-X--9-9-9-X--7-7-7-X--|
E|--7-7-7-X--x-x-x-X--7-7-7-X--x-x-x-X--7-7-7-X--x-x-x-X--7-7-7-X--x-x-x-X--|

e|---------------------------------------------------------|
B|----7---9--7------7---9--7----7---9--7------7---9--7-----|
G|--8--8--------8-8---8-------8---8-------8-8---8----------|
D|---------------------------------------------------------|
A|---------------------------------------------------------|
E|---------------------------------------------------------|

e|---------------------------------------------------------|
B|----7---9--7------7---9--7----7---9--7------7---9--7-----|
G|--8--8--------8-8---8-------8---8-------8-8---8----------|
D|---------------------------------------------------------|
A|---------------------------------------------------------|
E|---------------------------------------------------------|

[Solo]
e|------------------------------------------------------------------------------------------------|
B|------------------------------------------------------------------------------------------------|
G|---------------8-9-8---------------8-9-8------------------13-14-13------------------13-14-13----|
D|--------9------------9-------9-----------9---------14--------------14--------14--------------14-|
A|-----9----9----------------9---9----------------14----14------------------14----14--------------|
E|--7---------------------7--------------------12------------------------12-----------------------|

e|------------------------------------------------------------------------------------------------|
B|------------------------------------------------------------------------------------------------|
G|---------------8-9-8---------------8-9-8----------------4br-3~------------4br-3~----------------|
D|--------9------------9-------9-----------9--------4------------------4--------------------------|
A|-----9----9----------------9---9---------------4----4-------------4----4------------------------|
E|--7---------------------7--------------------2------------------2-------------------------------|

e|------------------------------------------------------------------------------------------------|
B|------------------------------------------------------------------------------------------------|
G|---------------8-9-8---------------8-9-8------------------13-14-13------------------13-14-13----|
D|--------9------------9-------9-----------9---------14--------------14--------14--------------14-|
A|-----9----9----------------9---9----------------14----14------------------14----14--------------|
E|--7---------------------7--------------------12------------------------12-----------------------|

e|------------------------------------------------------------------------------------------------|
B|------------------------------------------------------------------------------------------------|
G|---------------8-9-8---------------8-9-8----------------4br-3~------------4br-3~----------------|
D|--------9------------9-------9-----------9--------4------------------4--------------------------|
A|-----9----9----------------9---9---------------4----4-------------4----4------------------------|
E|--7---------------------7--------------------2------------------2-------------------------------|

[Chorus]
e|--7-7-7-7--7-7-7-7--7-7-7-7--7-7-7-7--x-x-x-x--x-x-x-x--7-7-7-7--7-7-7-7--|
B|--7-7-7-7--7-7-7-7--7-7-7-7--7-7-7-7--9-9-9-9--9-9-9-9--8-8-8-8--8-8-8-8--|
G|--8-8-8-8--8-8-8-8--8-8-8-8--8-8-8-8--9-9-9-9--9-9-9-9--9-9-9-9--9-9-9-9--|
D|--9-9-9-9--9-9-9-9--7-7-7-7--7-7-7-7--9-9-9-9--9-9-9-9--9-9-9-9--9-9-9-9--|
A|--9-9-9-9--9-9-9-9--9-9-9-9--9-9-9-9--7-7-7-7--7-7-7-7--7-7-7-7--7-7-7-7--|
E|--7-7-7-7--7-7-7-7--7-7-7-7--7-7-7-7--x-x-x-x--x-x-x-x--x-x-x-x--x-x-x-x--|
SHE PUTS HER MAKEUP   GRAFFITI ON THE   HEARTLAND
ON LIKE               WALLS OF THE
                
e|--7-7-7-7--7-7-7-7--7-7-7-7--7-7-7-7----2-2-2-2--2-2-2-2--2-2-2-2--2-2-2-2--|
B|--7-7-7-7--7-7-7-7--7-7-7-7--7-7-7-7----2-2-2-2--2-2-2-2--2-2-2-2--2-2-2-2--|
G|--8-8-8-8--8-8-8-8--8-8-8-8--8-8-8-8----3-3-3-3--3-3-3-3--3-3-3-3--3-3-3-3--|
D|--9-9-9-9--9-9-9-9--7-7-7-7--7-7-7-7----4-4-4-4--4-4-4-4--4-4-4-4--4-4-4-4--|
A|--9-9-9-9--9-9-9-9--9-9-9-9--9-9-9-9----4-4-4-4--4-4-4-4--4-4-4-4--4-4-4-4--|
E|--7-7-7-7--7-7-7-7--7-7-7-7--7-7-7-7----2-2-2-2--2-2-2-2--2-2-2-2--2-2-2-2--|
SHE’S GOT HER LITTLE BOOK OF CONSPIRACIES  HAND                      SHE WILL
RIGHT IN HER

e|--7-7-7-7--7-7-7-7--7-7-7-7--7-7-7-7--x-x-x-x--x-x-x-x--7-7-7-7--7-7-7-7--|
B|--7-7-7-7--7-7-7-7--7-7-7-7--7-7-7-7--9-9-9-9--9-9-9-9--8-8-8-8--8-8-8-8--|
G|--8-8-8-8--8-8-8-8--8-8-8-8--8-8-8-8--9-9-9-9--9-9-9-9--9-9-9-9--9-9-9-9--|
D|--9-9-9-9--9-9-9-9--7-7-7-7--7-7-7-7--9-9-9-9--9-9-9-9--9-9-9-9--9-9-9-9--|
A|--9-9-9-9--9-9-9-9--9-9-9-9--9-9-9-9--7-7-7-7--7-7-7-7--7-7-7-7--7-7-7-7--|
E|--7-7-7-7--7-7-7-7--7-7-7-7--7-7-7-7--x-x-x-x--x-x-x-x--x-x-x-x--x-x-x-x--|
COME IN FIRST FOR THE END OF WESTERN    CIVILIZATION
                                 
e|--7-7-7-7--7-7-7-7---------------------2-2-2---|
B|--7-7-7-7--7-7-7-7---------------------2-2-2---|
G|--8-8-8-8--8-8-8-8---------------------3-3-3---|
D|--9-9-9-9--9-9-9-9---------------------4-4-4---|
A|--9-9-9-9--9-9-9-9---------------------4-4-4---|
E|--7-7-7-7--7-7-7-7---------------------2-2-2---|
SHE’S A NATURAL DISASTER SHE’S THE LAST  GIRLS
OF THE AMERICAN

e|--7-7-7-X--x-x-x-X--7-7-7-X--x-x-x-X--7-7-7-X--x-x-x-X--7-7-7-X--x-x-x-X--|
B|--7-7-7-X--9-9-9-X--9-9-9-X--9-9-9-X--7-7-7-X--9-9-9-X--7-7-7-X--9-9-9-X--|
G|--8-8-8-X--9-9-9-X--8-8-8-X--9-9-9-X--8-8-8-X--9-9-9-X--8-8-8-X--9-9-9-X--|
D|--9-9-9-X--9-9-9-X--9-9-9-X--9-9-9-X--9-9-9-X--9-9-9-X--9-9-9-X--9-9-9-X--|
A|--9-9-9-X--7-7-7-X--9-9-9-X--7-7-7-X--9-9-9-X--7-7-7-X--9-9-9-X--7-7-7-X--|
E|--7-7-7-X--x-x-x-X--7-7-7-X--x-x-x-X--7-7-7-X--x-x-x-X--7-7-7-X--x-x-x-X--|

e|---------------------------------------------------------|
B|----7---9--7------7---9--7----7---9--7------7---9--7-----|
G|--8--8--------8-8---8-------8---8-------8-8---8----------|
D|---------------------------------------------------------|
A|---------------------------------------------------------|
E|---------------------------------------------------------|

e|---------------------------------------------------------|
B|----7---9--7------7---9--7----7---9--7------7---9--7-----|
G|--8--8--------8-8---8-------8---8-------8-8---8----------|
D|---------------------------------------------------------|
A|---------------------------------------------------------|
E|---------------------------------------------------------|

[Outro]
e|--7-7-7-X--x-x-x-X--7-7-7-X--x-x-x-X--7-7-7-X--x-x-x-X--7-7-7-X--x-x-x-X--|
B|--7-7-7-X--9-9-9-X--9-9-9-X--9-9-9-X--7-7-7-X--9-9-9-X--7-7-7-X--9-9-9-X--|
G|--8-8-8-X--9-9-9-X--8-8-8-X--9-9-9-X--8-8-8-X--9-9-9-X--8-8-8-X--9-9-9-X--|
D|--9-9-9-X--9-9-9-X--9-9-9-X--9-9-9-X--9-9-9-X--9-9-9-X--9-9-9-X--9-9-9-X--|
A|--9-9-9-X--7-7-7-X--9-9-9-X--7-7-7-X--9-9-9-X--7-7-7-X--9-9-9-X--7-7-7-X--|
E|--7-7-7-X--x-x-x-X--7-7-7-X--x-x-x-X--7-7-7-X--x-x-x-X--7-7-7-X--x-x-x-X--|

e|---------------------------------------------------------|
B|----7---9--7------7---9--7----7---9--7------7---9--7-----|
G|--8--8--------8-8---8-------8---8-------8-8---8----------|
D|---------------------------------------------------------|
A|---------------------------------------------------------|
E|---------------------------------------------------------|

e|---------------------------------------------------------|
B|----7---9--7------7---9--7----7---9--7------7---9--7-----|
G|--8--8--------8-8---8-------8---8-------8-8---8----------|
D|---------------------------------------------------------|
A|---------------------------------------------------------|
E|---------------------------------------------------------| 

            
            
Suggest correction
Creating personal tab
Creating personal tab
You can edit any tab online and save it as your Personal.

You can edit, replace or remove any tab part or add personal notes – all changes will be seen only by you.

Personal tabs can be accessed anytime from any device, even offline.
Learn more »
Give kudos to tab author, rate the tab!
1 2 3 4 5
comments
print report bad tab
1 comment total.
0 reply
onbevreesd5 20 Mar 04, 2017 05:42 AM

Why do some staves only have three strings?

guest
You may want to rate the tab now too:
select rating
Wanna post a correction for this tab? Suggest correction