Oops, an error
Loading. Please wait.

Last Ride In Tab

version 3
version 3

Whole song

Interactive

4,635 views 1 this week
no commentswrite comment
1 2 3 4 5
excellent!
x 6
add to favorites
launch autoscroll
font size
0
reset
how to read this tab
guitar tuner
Tab Pro tools
  • play this tab
  • loop segment
  • change instrument
  • show fretboard
  • metronome
Autoscroll
slow
fast
+/-
esc
set tempo
stop
Contributor
Difficulty
novice
ok. All i did for this song was add a few riffs in the middle.
I give full credit for the rest of the tab to KoRny Freak and
Rockyosoxoff. standard tuning.


e)-----------------------------------------------------------------|
b)-----------------------------------------------------------------|
g)-----------------------------------------------------------------|
d)-----------------------------------------------------------------|
A)-2---2-0--2h4-4p0-2-------2---2-0--2h4-0-4p2---------------------|
E)---2------------------------2------------------------------------|


e)---0----------0----------0--------------------|
b)----0----------0----------0--------------1-0--|
g)---------------------------------------0------|
d)-2-----4----2-----4----2-----2--2-2--4--------|
A)-2-----4----2-----4----2-----2--2-2--4--------|
E)-0-----2----0-----2----0-----0--0-0--2--------|


ok now this is that chord progression in the middle that
no one else seemed to have

e)------------------------------------------------------------------|
b)------------------------------------------------------------------|
g)--7h9-9------11-11-11-9--11-11h13-13------15-15-15-13-11-11h13-13-|
d)--7h9-9------11-11-11-9--11-11h13-13------15-15-15-13-11-11h13-13-|
A)--5h7-7-------9--9--9-7---9--9h11-11------13-13-13-11--9--9h11-11-|
E)------------------------------------------------------------------|

e)----------------------|
b)----------------------|
g)-11-11-11-9--7-7h9-9--|
d)-11-11-11-9--7-7h9-9--|
A)--9--9--9-7--5-5h7-7--|
E)----------------------|

and thats pretty much it. please comment and rate.
comments
print report bad tab
I want to post or [tab]
guest
You may want to rate the tab now too:
select rating
Please do not post tabs as comments. Select "correction" instead!