Oops, an error
Loading. Please wait.

Lazy Bones Tab

version 1
version 1

Whole song

Interactive

35,032 views 84 this week
4 commentsread comments
1 2 3 4 5
excellent!
x 23
add to favorites
launch autoscroll
font size
0
reset
how to read this tab
guitar tuner
Autoscroll
slow
fast
+/-
esc
set tempo
stop
Help us to improve Ultimate-Guitar.com Take our survey!
×
Author
Difficulty
intermediate
GREEN DAY
Lazy Bones
Standard


*Drums*

Intro/Verse 1 0:05 (half clean)
e|--9---------x----------7---------x--------------|
B|--10--------14---------7---------9--------------|
G|--11--(x16)-14--(x16)--7--(x16)--9--(x16)-------|
D|--11--------14---------9---------9--------------| x3
A|--9---------12---------9---------7--------------|
E|-----------------------7------------------------|
   F#m       A           Bm        E




Chorus 0:40
e|-------------------------------------|
B|-------------------------------------|
G|-------------------------------------|
D|---7-------4-------7-------4---------|
A|---7-(x16)-4-(x16)-7-(x16)-4-(x16)---|
E|---5-------2-------5-------2---------|...

0:52
e|------------------------------------------|---------------------------------|
B|--7--7-7-7--9--9-9-9--5--5-5-5--10-101010-|--7--7-7-7--9--9-9-9--2----------|
G|--7--7-7-7--9--9-9-9--6--6-6-6--11-111111-|--7--7-7-7--9--9-9-9--2----------|
D|--7--7-7-7--9--9-9-9--6--6-6-6--11-111111-|--7--7-7-7--9--9-9-9--2-(x16)----|
A|--5--5-5-5--7--7-7-7--4--4-4-4--9--9-9-9--|--5--5-5-5--7--7-7-7--0----------|
E|------------------------------------------|---------------------------------|...

1:03
e|------------------------------------------------------------------------------------------|
B|-7--7-7-7-7-7--9--9-9-9-9-9--5--5-5-5-5-5--10-1010101010--7--7-7-7-7-7--9--9-9-9-9-9------|
G|-7--7-7-7-7-7--9--9-9-9-9-9--6--6-6-6-6-6--11-1111111111--7--7-7-7-7-7--9--9-9-9-9-9------|
D|-7--7-7-7-7-7--9--9-9-9-9-9--6--6-6-6-6-6--11-1111111111--7--7-7-7-7-7--9--9-9-9-9-9------|
A|-5--5-5-5-5-5--7--7-7-7-7-7--4--4-4-4-4-4--9--9-9-9-9-9---5--5-5-5-5-5--7--7-7-7-7-7------|
E|------------------------------------------------------------------------------------------|


    _________________________
  | BACK TO INTRO/1ST VERSE!! |
  | __________________________|



VERSE 2 1:24 (REPEAT EACH CHORD PATTERN TWICE)
e|--9--9---9-----x--x---x-----7--7---7----x-x--x-----------|
B|--10-10--10----14-14--14----7--7---7----9-9--9-----------|
G|--11-11--11----14-14--14----7--7---7----9-9--9-----------|
D|--11-11--11----14-14--14----9--9---9----9-9--9-----------|
A|--9--9---9-----12-12--12----9--9---9----7-7--7-----------|
E|----------------------------7--7---7---------------------|

         x4      x4         x2                x2
e|-----9---|---x--|---7-9--7-|---x-x--x--------|
B|-----10--|--14--|---7-9--7-|---9-9--9--------|
G|-----11--|--14--|---7-9--7-|---9-9--9--------|
D|-----11--|--14--|---9-9--9-|---9-9--9--------|
A|-----9---|--12--|---9-9--9-|---7-7--7--------|
E|---------|------|---7-7--7-|-----------------|
GUITAR 2 ARPEGIO PART (1:36 - 1:46)
e|--2~--2------5~-----------7~----------------9~---7-7-7-7-7-----|
B|--2~----2----5~-----------7~--------7-------9~---7-7-7-7-7-----|
G|--x-------2--x-----6------x-----------------x----x-x-x-x-x-----|
D|--4~---------7~------7----9~--7-9-7----9-7--11~--9-9-9-9-9-----|
A|-----------------7---------------------------------------------|
E|---------------------------------------------------------------|


    _________________________
  | BACK TO CHORUS!!          |
  | __________________________|



    _________________________________________________________
  | BACK TO INTRO/1ST VERSE!! 2X (QUIETER FOR DISTANT EFFECT)|
  | SECOND TIME IS PLAYED WITH GTR 2 ARPEGIO PART            |
   __________________________________________________________




SOLO 2:44
(GUITAR 1 PLAYS NORMAL CHORUS SOON TO BE 
JOINED IN WITH GUITAR 2 AT 2:55 WITH VOCALS)
GTR 1
e|-------------------------------------|
B|-------------------------------------|
G|-------------------------------------|
D|---7-------4-------7-------4---------|
A|---7-(x16)-4-(x16)-7-(x16)-4-(x16)---|
E|---5-------2-------5-------2---------|
GTR 2
|Unison Bends
e|----------------------------------------------------------------------|
B|-5-5-5-5-5-5-5-5-5-5-5-5-7--7--7--7--2-2-2-2-2-2-2-2-2-2-2-2-2-2-2-2--|
G|-8b8b8b8b8b8b8b8b8b8b8b8b10b10b10b10b5b5b5b5b5b5b5b5b5b5b5b5b5b5b5b5b-|
D|----------------------------------------------------------------------|
A|----------------------------------------------------------------------|
E|----------------------------------------------------------------------|
CONTINUED                                                              ||
e|----------------------------------------------------------------------|
B|-5-5-5-5-5-5-5-5-5-5-5-5-10-10-10-10-7--7--7--7--7--7--7--7--7--7--7--|
G|-8b8b8b8b8b8b8b8b8b8b8b8b13b13b13b13b10b10b10b10b10b10b10b10b10b10b10b|
D|----------------------------------------------------------------------|
A|----------------------------------------------------------------------|
E|----------------------------------------------------------------------|


    ______________________________________
  | BACK TO CHORUS!! (2ND PART )          |
  | BUT DO NOT END ON THE 7999 CHORD..    |
  | AND CONTINUE ON WITH THE 5776 + 9111111
  | ______________________________________|



    __________________________________
  | BACK TO INTRO/1ST VERSE!!         |
  | AND END WITH ONE SINGLE F#m7 CHORD|
  _____________________________________

DONE!!!! CHEERS.
PLZ RATE AND COMMENT! :P 
UPDATED ON APPROVAL QUEUE)
Suggest correction
What's this?
You can suggest a correction to this tab. Community and Mods will review your correction and vote to approve or reject it.
comments
print report bad tab
4 comments total. Showing first comments.
0 reply
oscarjgd 79 wrote on January 26 2013, 02:37 am

The solo, instead of fret 6 its actually fret 5.

0 reply
oscarjgd 79 wrote on January 26 2013, 02:38 am

http://tabs.ultimate-guitar.com/g/green_day/lazy_bones_ver3_tab.htm

0 reply
deathfromala 4,776 wrote on January 31 2013, 12:37 am

Nah i still stand by 6. i tried it with 5 and it sounds horrible.
and the 6th fret is C# and the rhythm plays F#. both those notes/chords go together too well.

guest
You may want to rate the tab now too:
select rating
Please do not post tabs as comments. Select "correction" instead!