Oops, an error
Loading. Please wait.

Lazy Bones Chords

version 2
version 2

Whole song

Interactive

6,427 views 15 this week
2 commentsread comments
1 2 3 4 5
accurate
x 2
add to favorites
launch autoscroll
font size
0
reset
transpose
0
reset
- display chords -
guitar tuner
Tab Pro tools
  • play this tab
  • loop segment
  • change instrument
  • show fretboard
  • metronome
Autoscroll
slow
fast
+/-
esc
set tempo
stop
Contributor
-------------------------------------------------------------------------------
                          Green Day - Lazy Bones
                            Album: Dos (2012) 
-------------------------------------------------------------------------------
Tabbed by:
LG97187

[Intro]

F#m A Bm E

If you want to play the intro similary to the riff,
It should go something like this:

   F#m            A        Bm     E
e|----------------------------------------|
b|--10--------------14--------------------|
G|--11- x16(times)--14- x16--7-x16--9 x16-|
D|---------------------------9------9-----|
A|--9---------------12-------9------7-----|
E|---------------------------7------------|


[Verse 1]
F#m
I'm too tired to be bored
A
I'm too bored to be tired 
Bm
And the silence is so deafening
E
It's like picking at a sore 
F#m
I'm too mental to go crazy 
A
I'm too drunk too be pure 
Bm
And my mind is playing tricks on me 
E                                        A
And I can't sleep tonight 'cause I'm so tired, 

[Chorus]
        F#m
I can't take it anymore 
              A
With all the liars 
        F#m
Like a prisoner of war 
D                 E
I don't want your sympathy 
C#m               F#m
I don't want your honesty 
D               E                A
I just want to get some peace of mind 
D                E
It's only in my head 
C#m             F#m
As I roll over and play dead 
D               E
I don't want to hear it anymore 


F#m A Bm E

[Verse 2]
F#m
It's good to see you but 
 A
I really must admit 
           Bm
There's an odor in the air and 
  E
I think you look like shit 
F#m
I can't stand from falling down 
   A
I'm too sick to throw up
Bm
Everyone keeps talking and they 
E                                      A
Can't shut the fuck up, 'cause I'm so tired,


[Chorus]
        F#m
I can't take it anymore 
              A
With all the liars 
        F#m
Like a prisoner of war 
D                 E
I don't want your sympathy 
C#m               F#m
I don't want your honesty 
D               E                A
I just want to get some peace of mind 
D                E
It's only in my head 
C#m             F#m
As I roll over and play dead 
D               E
I don't want to hear it anymore 

[Bridge]

F#m A Bm E x2


    A                       F#m                 
                            Whoaaaaaaoooooooooo
e|------------------------------------------------|
b|------------------------------------------------|
G|-9999999999999/11-11-11-11-\66666666666666666---| 
D|------------------------------------------------| 
A|------------------------------------------------|
E|------------------------------------------------|
  
  A                       F#m                 
                          Whoaaaaaaoooooooooo
e|------------------------------------------------|
b|------------------------------------------------|
G|-9999999999999/14141414\11-11-11-11-11-11-11-11-| 
D|------------------------------------------------| 
A|------------------------------------------------|
E|------------------------------------------------|


[Chorus]
D                 E
I don't want your sympathy 
C#m               F#m
I don't want your honesty 
D               E                A
I just want to get some peace of mind 
D                E
It's only in my head 
C#m             F#m
As I roll over and play dead 
D               E
I don't want to hear about it
C#m             F#m
I don't want to scream about it 
D               E
I don't want to hear it anymore

[Outro]

F#m A Bm E

End on F#m
comments
We did not receive enough feedback on this tab! Please rate:
print report bad tab
1 2 3 4 5
2 comments total.
+1 reply
Redundantos wrote on November 7 2012, 03:35 pm

All great except for the bridge. It should be like this
e|------------------------------------------------|
b|------------------------------------------------|
G|-9999999999999/11-11-11-11-11\66666666666666666-|
D|------------------------------------------------|
A|------------------------------------------------|
E|------------------------------------------------|

e|------------------------------------------------|
b|------------------------------------------------|
G|-9999999999999/14141414\11-11-11-11-11-11-11-11-|
D|------------------------------------------------|
A|------------------------------------------------|
E|------------------------------------------------|

0 reply
LG97187 wrote on November 7 2012, 07:48 pm

Yeah, true.
thanks man,
will fix it. ;)

I want to post or [tab]
guest
You may want to rate the tab now too:
select rating
Please do not post tabs as comments. Select "correction" instead!