Oops, an error
Loading. Please wait.

Lazy Bones Tab

version 2
version 2

Whole song

Interactive

2,301 views 1 this week
no commentswrite comment
1 2 3 4 5
please rate
add to favorites
launch autoscroll
font size
0
reset
how to read this tab
guitar tuner
Autoscroll
slow
fast
+/-
esc
set tempo
stop
Help us to improve Ultimate-Guitar.com Take our survey!
×
Author
Difficulty
advanced
Lazy Bones by Green Day

This is my first tab so judge this accordingly. Only 1:34 of the song has been
released through Angry Birds Friends on Facebook and theres a link bellow. All comments 
welcome :)

http://www.youtube.com/watch?v=nN19j5s-49k

Intro/Verse

E|--9--9--9--9----9--9--9--9----9--9--9--9---|
B|--10-10-10-10---10-10-10-10---10-10-10-10--|
G|--11-11-11-11---11-11-11-11---11-11-11-11--|
D|-------------------------------------------|
A|-------------------------------------------|
E|-------------------------------------------|

E|--9--9--9--9----9--9--9--9----9--9--9--9---|
B|--10-10-10-10---10-10-10-10---10-10-10-10--|
G|--11-11-11-11---9--9--9--9----9--9--9--9---|
D|-------------------------------------------|
A|-------------------------------------------|
E|-------------------------------------------|

E|--9--9--9--9----9--9--9--9----10-10-10-10--|
B|--10-10-10-10---10-10-10-10---12-12-12-12--|
G|--9--9--9--9----9--9--9--9----11-11-11-11--|
D|-------------------------------------------|
A|-------------------------------------------|
E|-------------------------------------------|

E|--10-10-10-10---10-10-10-10---10-10-10-10--|
B|--12-12-12-12---12-12-12-12---12-12-12-12--|
G|--11-11-11-11---11-11-11-11---11-11-11-11--|
D|-------------------------------------------|
A|-------------------------------------------|
E|-------------------------------------------|

E|--10-10-10-10---10-10-10-10---10-10-10-10--|
B|--12-12-12-12---12-12-12-12---12-12-12-12--|
G|--13-13-13-13---13-13-13-13---13-13-13-13--|
D|-------------------------------------------|
A|-------------------------------------------|
E|-------------------------------------------|

E|--10-10-10-10---|
B|--12-12-12-12---|
G|--13-13-13-13---|
D|----------------|
A|----------------|
E|----------------|

Or

E|--12-12-12-12---12-12-12-12---12-12-12-12--|
B|--12-12-12-12---12-12-12-12---12-12-12-12--|
G|--13-13-13-13---13-13-13-13---13-13-13-13--|
D|-------------------------------------------|
A|-------------------------------------------|
E|-------------------------------------------|

E|--12-12-12-12---|
B|--12-12-12-12---|
G|--13-13-13-13---|
D|----------------|
A|----------------|
E|----------------|

Chorus

I dont want your sympathy
E|----------------------|
B|--5-5-5-5---5-5-5-5---|
G|--6-6-6-6---6-6-6-6---|
D|--7-7-7-7---7-7-7-7---|
A|--7-7-7-7---7-7-7-7---|
E|----------------------|

I dont want your honesty
E|----------------------|
B|--2-2-2-2-------------|
G|--3-3-3-3---1-1-1-1---|
D|--4-4-4-4---2-2-2-2---|
A|--4-4-4-4---2-2-2-2---|
E|----------------------|

I just wanna get some peace of mind
E|--2-2-2-2-------------------------------|
B|--3-3-3-3-------------2-2-2-2-2-2-2-2---|
G|--2-2-2-2---1-1-1-1---2-2-2-2-2-2-2-2---|
D|------------2-2-2-2---2-2-2-2-2-2-2-2---|
A|------------2-2-2-2---------------------|
E|----------------------------------------|

Its only in my head
E|----------------------|
B|--2-2-2-2---2-2-2-2---|
G|--2-2-2-2---3-3-3-3---|
D|--2-2-2-2---4-4-4-4---|
A|------------4-4-4-4---|
E|----------------------|

As I roll over and play dead
E|--2-2-2-2-------------|
B|--3-3-3-3-------------|
G|--2-2-2-2---1-1-1-1---|
D|------------2-2-2-2---|
A|------------2-2-2-2---|
E|----------------------|

I dont want to hear it anymore
E|------------2-2-2-2-2-2-2-2---|
B|--2-2-2-2---3-3-3-3-3-3-3-3---|
G|--2-2-2-2---2-2-2-2-2-2-2-2---|
D|--2-2-2-2---------------------|
A|------------------------------|
E|------------------------------|

E|----------------------|
B|--2-2-2-2---5-5-5-5---|
G|--3-3-3-3---6-6-6-6---|
D|--4-4-4-4---7-7-7-7---|
A|--4-4-4-4---7-7-7-7---|
E|----------------------|

Then back to verse and thats as much of the song as weve heard.

Lyrics:

Im too tired to be bored
Im too bored to be tired
And the silence is so deafening
Its like picking at a sore
Im too mental to go crazy
Im too drunk too be pure
And my mind is playing tricks on me
And I cant sleep tonight cause Im so tired
I cant take it anymore
With all the liars
Like a prisoner of war

I dont want your sympathy
I dont want your honesty
I just want to get some peace of mind
Its only in my head
As I roll over and play dead
I dont want to hear it anymore

Its good to see you but I really must admit
Theres an odor in the air and I think you look like shit
Suggest correction
What's this?
You can suggest a correction to this tab. Community and Mods will review your correction and vote to approve or reject it.
comments
We did not receive enough feedback on this tab! Please rate:
print report bad tab
1 2 3 4 5
guest
You may want to rate the tab now too:
select rating
Please do not post tabs as comments. Select "correction" instead!