Oops, an error
Loading. Please wait.

Let Yourself Go Bass Tab

version 1
version 1

Whole song

Interactive

6,651 views 6 this week
2 commentsread comments
1 2 3 4 5
accurate
x 8
add to favorites
launch autoscroll
font size
0
reset
guitar tuner
Tab Pro tools
  • play this tab
  • loop segment
  • change instrument
  • show fretboard
  • metronome
×
Best way to learn
"Let Yourself Go"
Autoscroll
slow
fast
+/-
esc
set tempo
stop
Contributor
Difficulty
novice
Hey, this tab isn't too hard and it's fun to play to!
Enjoy!

Artist: Green Day
Album: ¡Uno!
Song: Let Yourself go
Bassist: Mike Dirnt

Tuning: Standard [EADG]

Intro [x3]
G|-----------------|
D|-----------------|
A|-------5---------| 
E|----3-----5------|

Verse [x5]
G|-----------------|
D|-----------------|
A|-------5---------| 
E|----3-----5------|

Chorus [x2]
G|------------------------------------|
D|------------------------------------|
A|----55555555------------------------| 
E|--------------33333333----55555555--|

G|------------------------------------|
D|--------------55555555--77777777----|
A|----55555555------------------------| 
E|------------------------------------|

Bridge
G|--------------------------|
D|--------------------------|
A|----------------------5---|
E|---3-4-5---3-4-5---3-----5|

Verse [x5]
G|-----------------|
D|-----------------|
A|-------5---------| 
E|----3-----5------|

Chorus [x2]
G|------------------------------------|
D|------------------------------------|
A|----55555555------------------------| 
E|--------------33333333----55555555--|

G|------------------------------------|
D|--------------55555555--77777777----|
A|----55555555------------------------| 
E|------------------------------------|

Bridge
G|-------------------------------|
D|-------------------------------|
A|-------------------------------|
E|---3-4-5---3-4-5---3-4-55555555|

Solo [x2]
G|------------------------------------|
D|------------------------------------|
A|----55555555------------------------| 
E|--------------33333333----55555555--|

G|------------------------------------|
D|--------------55555555--77777777----|
A|----55555555------------------------| 
E|------------------------------------|

After solo
G|----------------------------------------|
D|----------------------------------------|
A|-----5------5-----5-----5-----5---------|
E|----------------------------------------|

Chorus [x2]
G|------------------------------------|
D|------------------------------------|
A|----55555555------------------------| 
E|--------------33333333----55555555--|

G|------------------------------------|
D|--------------55555555--77777777----|
A|----55555555------------------------| 
E|------------------------------------|


Ending/Outro
G|--------------------|
D|--------------------|
A|-------------5------|
E|---3-4-5---3---5----|
comments
print report bad tab
2 comments total.
0 reply
DrSeemann wrote on September 22 2012, 11:51 am

the chorus goes like that:

G|------------------------------------|------------------------------------|
D|------------------------------------|--------------33333333----55555555--|
A|----55555555------------------------|----55555555------------------------|
E|--------------33333333----55555555--|------------------------------------|

0 reply
DrSeemann wrote on September 22 2012, 11:53 am

damn, my mistake, it's 5 and 7 on the D-string

I want to post or [tab]
guest
You may want to rate the tab now too:
select rating
Please do not post tabs as comments. Select "correction" instead!