Oops, an error
Loading. Please wait.

Let Yourself Go Tab

version 1
version 1

Whole song

  • It's the studio version and not the live one from red 6.

Interactive

Video

18,201 views 24 this week
1 commentread comment
1 2 3 4 5
accurate
x 3
add to favorites
launch autoscroll
font size
0
reset
how to read this tab
guitar tuner
Autoscroll
slow
fast
+/-
esc
set tempo
stop
Help us to improve Ultimate-Guitar.com Take our survey!
×
Author
Difficulty
intermediate
Let Yourself Go! - Green Day
¡UNO!
Tab by Jordan S.

*Intro/Verse*

Guitar 1 (Billie Joe)
e|-----------------------------------------------------------|
B|-----------------------------------------------------------|
G|----7------------------------------------------------------|\
D|--5-7-7----------------------------------------------------| \
A|--5-5-7----------------------------------------------------|  \
E|--3---5----------------------------------------------------|   \
                                                                  x7
Guitar 2 (Jason)                                                  
e|-----------------------------------------------------------|   /
B|-----------------------------------------------------------|  /
G|----7------------------------------------------------------| /
D|--5-7-7--7-7-7---------------------------------------------|/
A|--5-5-7--x-x-x---------------------------------------------|
E|--3---5--5-5-5---------------------------------------------|

(on the 7th time just play Billie's part)

*Chorus*

Both Guitars
e|-----------------------------------------------------------|
B|-----------------------------------------------------------|
G|--7--------------------------------------------------------| X 4
D|--7---5---7------------------------------------------------|
A|--5---5---7------------------------------------------------|
E|------3---5------------------------------------------------|

*Post Chorus?*
Both Guitars
e|------------x-----------------------------------------------|
B|------------x-----------------------------------------------|
G|------------x--X-(How ever many times)----------------------|
D|--5--6--7---x-----------------------------------------------|
A|--5--6--7---x-----------------------------------------------|
E|--3--4--5---x-----------------------------------------------|

Verse
Chorus
Post-Chorus
Solo (Chorus played on Guitar 2)


Bridge
Guitar 1 plays nothing

Guitar 2
e|-----------------------------------------------------------|
B|-----------------------------------------------------------|
G|-------------7---------------------------------------------|
D|--7-7-7-7----7---------------------------------------------|
A|--7-7-7-7----5---------------------------------------------|
E|--5-5-5-5--------------------------------------------------|
    * * * *

Chorus

Outro
Both Guitars
e|-----------------------------------------------------------|
B|-----------------------------------------------------------|
G|-----------------------------7-----------------------------|
D|-5--6--7----(Drum Fill)---5--7--7--------------------------|
A|-5--6--7------------------5--5--7--------------------------|
E|-3--4--5------------------3-----5--------------------------|
Suggest correction
Give kudos to tab author, rate the tab!
1 2 3 4 5
comments
print report bad tab
1 comment total.
0 reply
patmcc88 10 wrote on October 13 2013, 11:00 pm

wrong on the solo bit man. the chorus chords are not played, its this:
e|----------------------------|
B|----------------------------|
G|-7--12--9-7-6----7--12--14--|
D|-x--x---x-x-x----x--x---x---|
A|-5--10--7-5-4----5--10--12--|
E|----------------------------|

guest
You may want to rate the tab now too:
select rating
Please do not post tabs as comments. Select "correction" instead!