Oops, an error
Loading. Please wait.

Let Yourself Go Bass Tab

version 2
version 2

Whole song

Interactive

650 views 1 this week
1 commentread comment
1 2 3 4 5
2 more votes to show rating
add to favorites
launch autoscroll
font size
0
reset
guitar tuner
Autoscroll
slow
fast
+/-
esc
set tempo
stop
Help us to improve Ultimate-Guitar.com Take our survey!
×
Author
Difficulty
novice
Think that sounds good =) Enjoy it =) While the Chorus u should play with the 
strings. I couldnt directly count how often i hit them. The way i tabbed works too ^^
If you find somethin to make better - let me know =) Thx Guys 



Intro & verse
G|--------------|
D|--------------|
A|-------5------| x7
E|----3-----5---|

Chorus

G|------------------------------------|
D|------------------------------------|
A|----55555555------------------------| 
E|--------------33333333----55555555--|

G|----------------------------------------------------|
D|----------------------------------------------------|
A|----55555555----------------------------------------| 
E|--------------1010101010101010----1212121212121212--|

G|------------------------------------|
D|------------------------------------|
A|----55555555------------------------| 
E|--------------33333333----55555555--|

G|----------------------------------------------------|
D|----------------------------------------------------|
A|----55555555----------------------------------------| 
E|--------------1010101010101010----1212121212121212--|

Bridge

G|-------------------|   
D|-------------------|   
A|-------------------|   
E|---3-4-5-----------|x2

G|--------------|
D|--------------|
A|-------5------| x5
E|----3-----5---|


Chorus
G|------------------------------------|
D|------------------------------------|
A|----55555555------------------------| 
E|--------------33333333----55555555--|

G|----------------------------------------------------|
D|----------------------------------------------------|
A|----55555555----------------------------------------| 
E|--------------1010101010101010----1212121212121212--|

G|------------------------------------|
D|------------------------------------|
A|----55555555------------------------| 
E|--------------33333333----55555555--|

G|----------------------------------------------------|
D|----------------------------------------------------|
A|----55555555----------------------------------------| 
E|--------------1010101010101010----1212121212121212--|

Bridge
G|-------------------|   G|--------------------------------|
D|-------------------|   D|--------------------------------|
A|-------------------|   A|--------------------------------|
E|---3-4-5-----------|x3 E|---3-4-55555555-10121212121212--|

Solo
G|------------------------------------|
D|------------------------------------|
A|----55555555------------------------| 
E|--------------33333333----55555555--|

G|----------------------------------------------------|
D|----------------------------------------------------|
A|----55555555----------------------------------------| 
E|--------------1010101010101010----1212121212121212--|

G|------------------------------------|
D|------------------------------------|
A|----55555555------------------------| 
E|--------------33333333----55555555--|

G|----------------------------------------------------|
D|----------------------------------------------------|
A|----55555555----------------------------------------| 
E|--------------1010101010101010----1212121212121212--|

After solo

G|----------------------------------------|
D|----------------------------------------|
A|-----5------5-----5-----5-----5---------|
E|----------------------------------------| x4 (in Live Version)

G|------------------------------------|
D|------------------------------------|
A|----55555555------------------------| 
E|------------------1212121212121212--|

Chorus

G|------------------------------------|
D|------------------------------------|
A|----55555555------------------------| 
E|--------------33333333----55555555--|

G|----------------------------------------------------|
D|----------------------------------------------------|
A|----55555555----------------------------------------| 
E|--------------1010101010101010----1212121212121212--|

G|------------------------------------|
D|------------------------------------|
A|----55555555------------------------| 
E|--------------33333333----55555555--|

G|----------------------------------------------------|
D|----------------------------------------------------|
A|----55555555----------------------------------------| 
E|--------------1010101010101010----1212121212121212--|

G|------------------------------------|
D|------------------------------------|
A|----55555555------------------------| 
E|--------------33333333----55555555--|

G|----------------------------------------------------|
D|----------------------------------------------------|
A|----55555555----------------------------------------| 
E|--------------1010101010101010----1212121212121212--|

G|------------------------------------|
D|------------------------------------|
A|----55555555------------------------| 
E|--------------33333333----55555555--|

G|----------------------------------------------------|
D|----------------------------------------------------|
A|----55555555----------------------------------------| 
E|--------------1010101010101010----1212121212121212--|

Ending/Outro

G|--------------------|
D|--------------------|
A|-------------5------|
E|---3-4-5---3---5----|
Suggest correction
Give kudos to tab author, rate the tab!
1 2 3 4 5
comments
print report bad tab
1 comment total.
0 reply
AFS_Jamesy 31 Sep 12, 2012 02:35 PM

G|----------------------------------------------------|
D|----------------------------------------------------|
A|----55555555----------------------------------------|
E|--------------1010101010101010----1212121212121212--|

Any part with that is wrong.

5th fret on A is D.
10th fret on E is D.
You're playing the same note.
Even if there was a need to play the same note (which there isn't, as it goes to a G) there's no point changing your hand position for nothing.

Other than that, the tab's pretty much perfect. :D

guest
You may want to rate the tab now too:
select rating
Wanna post a correction for this tab? Suggest correction