Oops, an error
Loading. Please wait.

Let Yourself Go Bass Tab

version 3
version 3

Whole song

Interactive

4,537 views 12 this week
9 commentsread comments
1 2 3 4 5
excellent!
x 16
add to favorites
launch autoscroll
font size
0
reset
guitar tuner
Tab Pro tools
  • play this tab
  • loop segment
  • change instrument
  • show fretboard
  • metronome
×
Best way to learn
"Let Yourself Go"
Autoscroll
slow
fast
+/-
esc
set tempo
stop
Contributor
Difficulty
novice
I'm telling you, this is the real deal. Very fun to play. Dookie-esque.
Intro
G|--------| x7
D|--------|
A|--5-----|
E|3---5---|


Chorus
G|---------------------------------------------------------------------| x2
D|------------------------------------------5555555--7777777777777777--|
A|5555555--------------------------4-5555555---------------------------|
E|-------3333333--55555555555555-7-------------------------------------|

G|----------------- (before verse)---| x1
D|-567--567--------------------------|
A|-------------4---------------------|
E|-----------3---5-------------------|

G|----| x4 (verse)
D|----|
A|-5--|
E|3--5|

Chorus
G|---------------------------------------------------------------------| x2
D|------------------------------------------5555555--7777777777777777--|
A|5555555--------------------------4-5555555---------------------------|
E|-------3333333--55555555555555-7-------------------------------------|


G|---| Bridge x3
D|567|
A|---|
G|---|

G|----------------| bridge pt 2 (x1)
D|----------------|
A|----------------|
E|5677777777777777|

GUITAR solo x2
G|-----------------------------------------------------------------| x2
D|--------------------------------------5555555--7777777777777777--|
A|5555555------------------------5555555---------------------------|
E|-------3333333--555555555555555----------------------------------|

Interlude
G|- x5
D|-
A|5
E|-

Interlude pt 2 x1
G|-------|
D|-------|
A|5555555|
E|-------|

Everything till outro
G|-----------------------------------------------------------------| x4
D|--------------------------------------5555555--7777777777777777--|
A|5555555------------------------5555555---------------------------|
E|-------3333333--555555555555555----------------------------------|

Outro
G|------------| x1
D|567---------|
A|-------5----|
E|-----3---5--|
comments
print report bad tab
9 comments total. Showing first comments.
0 reply
BassFreak98 wrote on September 20 2012, 06:32 pm

At the bridge x3, i accidentally did GADG, it's still standard. ;P

0 reply
DejtheBassist wrote on September 24 2012, 06:43 pm

Is this any different than the studio version tabs?

0 reply
DejtheBassist wrote on September 24 2012, 06:44 pm

NEvermind im on the wrong tab :O

I want to post or [tab]
guest
You may want to rate the tab now too:
select rating
Please do not post tabs as comments. Select "correction" instead!