Oops, an error
Loading. Please wait.
We have an official Letterbomb tab made by UG professional guitarists. Check out the tab »
×
24,846 views 42 this week
16 commentsread comments
1 2 3 4 5
x 34
add to favorites
×
Save as Personal and add changes to this tab that will be seen only by you. Learn more ›
×
You can save this tab as Personal to edit and correct it or add notes. All changes will be seen only by you. Learn more »
launch autoscroll
font size
0
reset
guitar tuner
backing track
0:00
0:00
edit
Autoscroll
slow
fast
+/-
esc
set tempo
stop
Letterbomb - Green Day
Tabbed By : gr33n_dayw49
e-mail: gr33n_dayw49@hotmail.com
Tuning: Standard (EADG)

[Intro]
G|--------------------------------------------------------------------------|
D|------------------6666666666666666-----------------7777777777777777-------|
A|2/777777777777777------------------4444444444444444-----------------------|
E|--------------------------------------------------------------------------|
  
G|---------------------------------------------------------------------|
D|---------------------------------------------------------------------|
A|-----------------------------------4-4-4-44-44-4444------------------|
E|-0-0-0-00-00-0000-4-4-4-44-44-4444------------------5-5-5-55-55-5555-|
   (where have all the bastards gone?.....)

G|-----------------------------------------------------------------|
D|-----------------------------------------------------------------|
A|-----------------------------------------------------------------|
E|-0-0000000000000000--5-5-5-55-55-5555-2-2-2222-5-55555-000-00-00-|
PM   ............

G|-----------------------------------------------------------------------|
D|-----------------------------------------------------------------------|
A|----------44444444----------44444444-----------------------------------|
E|-44444444----------44444444----------55555555-22222222-7-777-5-0-7-777-|
   (where have all the riots gone...?)

G|-----------------------------------------------------------------|
D|-----------------------------------------------------------------|
A|-----------------------------------------------------------------|
E|-0-0000000000000000--5-5-5-55-55-5555-2-2-2222-5-55555-000-00-00-|
PM   ............

G|-----------------------------------------------------------------------|
D|-----------------------------------------------------------------------|
A|----------44444444----------44444444-----------------------------------|
E|-44444444----------44444444----------55555555-22222222-7-777-5-0-7-777-|

G|----------------------|
D|----------------------|
A|----------------------|
E|-5-0-7-777-5-0-7-777--|
  (The television's an obstructionist...)

G|-----------------------------------------------------|
D|-----------------------------------------------------|
A|-----------------------------------------------------|
E|-5555555-0-5-5555555-0-7-7777777-0-7-7777-0-7-0-7-77-|
  (It's not over until youre underground.....)

G|-----------------------------------------------------------------------|
D|-----------------------------------------------------------------------|
A|-77777777---------------------------77777777---------------------------|
E|----------77777777-5555555555555555----------77777777-5555555555555555-|

G|--------------------------------------------------------------------------|
D|--------------------------------------------------------------------------|
A|-77777777---------------------------77777777------------------------------|
E|----------77777777-5555555555558888----------77777777-5555555555555555-2-5|

   ~Fill~

G|--------------------------------------------------------------------------|
D|--------------------------------------------------------------------------|
A|------------------------------------4~------------------------------------|
E|-0~---------------4~---------------------------------5~-------------------|

G|---------------------------------------------------------------------|\
D|------------------6-6-6-66-66-6666------------------7-7-7-77-77-7777-| \   
A|-----------------------------------4-4-4-44-44-4444------------------| /x2
E|-0-0-0-00-00-0000----------------------------------------------------|/
  (your not the Jesus Of Suburbia)

G|-------------------------------------------------------------|
D|-------------------------------------------------------------|
A|-------------------------------------------------------------|
E|-0-7-77777777-0-7-7777777-0-5-555555555--0-7-7777-0-7-0-7-77-|

  (It's not over until youre underground.....)
G|-----------------------------------------------------------------------|
D|-----------------------------------------------------------------------|
A|-77777777---------------------------77777777---------------------------|
E|----------77777777-5555555555555555----------77777777-5555555555555555-|

G|-----------------------------------------------------------------------|
D|-----------------------------------------------------------------------|
A|-77777777---------------------------77777777---------------------------|
E|----------77777777-5555555555558888----------77777777-5555555555555555-|
  
 (She said I can't take this place, I'm leaving it behind...) x2
G|---------------------------------------------------------------------|
D|------------------6-6-6-66-66-6666------------------7-7-7-77-77-7777-|
A|-----------------------------------4-4-4-44-44-4444------------------|
E|-0-0-0-00-00-0000----------------------------------------------------|

[Outro]
G|--------------------------------------------------|
D|--------------------------------------------------|
A|--------------------------------------------------|
E|-0~-----00------0~-----00------0~-----00-----0~~~~|

************************************

| /   Slide up
| PM  Palm mute
| ~   Vibrato

************************************

            
            
Suggest correction
Creating personal tab
Creating personal tab
You can edit any tab online and save it as your Personal.

You can edit, replace or remove any tab part or add personal notes – all changes will be seen only by you.

Personal tabs can be accessed anytime from any device, even offline.
Learn more »
comments
print report bad tab
16 comments total. Showing first comments.
0 reply
gr33n_dayw49 350 Nov 21, 2004 07:00 PM

y does it suck?

+2 reply
Baza14 40 Nov 23, 2004 07:00 PM

Sorry, I've looked at it again, it's not actually that bad...sorry

0 reply
Baza14 40 Dec 08, 2004 07:00 PM

i'm such a dumb arse...

guest
You may want to rate the tab now too:
select rating
Wanna post a correction for this tab? Suggest correction