Oops, an error
Loading. Please wait.
We have an official Letterbomb tab made by UG professional guitarists. Check out the tab »
×
362 views 1 this week
no commentswrite comment
1 2 3 4 5
3 more votes to show rating
add to favorites
×
Save as Personal and add changes to this tab that will be seen only by you. Learn more ›
×
You can save this tab as Personal to edit and correct it or add notes. All changes will be seen only by you. Learn more »
launch autoscroll
font size
0
reset
how to read this tab
guitar tuner
backing track
0:00
0:00
edit
Autoscroll
slow
fast
+/-
esc
set tempo
stop
Author
Difficulty
----------------------------------------------------------------------------
Green Day - Letterbomb
----------------------------------------------------------------------------



INTRO (0:18-0:44)

Guitar 1
e|-----------------|-----------------|-----------------|-----------------|
B|-----------------|-----------------|-----------------|-----------------|
G|-9-9-9-9-9-9-9-9-|-9-9-9-9-9-9-9-9-|-9-9-9-9-9-9-9-9-|-9-9-9-9-9-9-9-9-|
D|-----------------|-----------------|-----------------|-----------------|
A|-7-7-7-7-7-7-7-7-|-7-7-7-7-7-7-7-7-|-7-7-7-7-7-7-7-7-|-7-7-7-7-7-7-7-7-|
E|-----------------|-----------------|-----------------|-----------------|

e|-----------------|-----------------|-----------------|-----------------|
B|-----------------|-----------------|-----------------|-----------------|
G|-9-9-9-9-9-9-9-9-|-9-9-9-9-9-9-9-9-|-8-8-8-8-8-8-8-8-|-8-8-8-8-8-8-8-8-|
D|-----------------|-----------------|-----------------|-----------------|
A|-7-7-7-7-7-7-7-7-|-7-7-7-7-7-7-7-7-|-6-6-6-6-6-6-6-6-|-6-6-6-6-6-6-6-6-|
E|-----------------|-----------------|-----------------|-----------------|

e|-----------------|-----------------|-----------------|-----------------|
B|-----------------|-----------------|-----------------|-----------------|
G|-9-9-9-9-9-9-9-9-|-9-9-9-9-9-9-9-9-|-9-9-9-9-9-9-9-9-|-9-9-9-9-9-9-----|
D|-----------------|-----------------|-----------------|-----------------|
A|-7-7-7-7-7-7-7-7-|-7-7-7-7-7-7-7-7-|-7-7-7-7-7-7-7-7-|-7-7-7-7-7-7-----|
E|-----------------|-----------------|-----------------|-------------12\-|

e|---0-------------------------------|-----------------------------------|
B|---0-0-----------------------------|-----------------------------------|
G|---1-1-1---------------------------|-----------------------------------|
D|-2-2-2-2-2--2-2-2-2-2-2------------|-x-x-6--6-6-6-6-6-6--6-6-6-6-6-6---|
A|-2-2-2-2-2--2-2-2-2-2-2------------|-x-x-6--6-6-6-6-6-6--6-6-6-6-6-6---|
E|-0-0-0-0-0--0-0-0-0-0-0------------|-x-x-4--4-4-4-4-4-4--4-4-4-4-4-4---|

e|-----------------------------------|-----------------------------------|
B|-----------------------------------|-----------------------------------|
G|-x-x-6--6-6-6-6-6-6--6-6-6-6-6-6---|-----------------------------------|
D|-x-x-6--6-6-6-6-6-6--6-6-6-6-6-6---|-x-x-7--7-7-7-7-7-7--7-7-7-7-7-----|
A|-x-x-4--4-4-4-4-4-4--4-4-4-4-4-4---|-x-x-7--7-7-7-7-7-7--7-7-7-7-7-----|
E|-----------------------------------|-x-x-5--5-5-5-5-5-5--5-5-5-5-5-0-0-|



VERSE 1 (0:45-1:06)

Guitar 1
e|-----------------------------------|-----------------------------------|
B|-----------------------------------|-----------------------------------|
G|-----------------------------------|-----------------------------------|
D|-2--2-2-2-2-2-2-2-2-2-2-2-2-2------|-x-x-7--7-7-7-7-7-7--7-7-7-7-7-7---|
A|-2--2-2-2-2-2-2-2-2-2-2-2-2-2------|-x-x-7--7-7-7-7-7-7--7-7-7-7-7-7---|
E|-0--0-0-0-0-0-0-0-0-0-0-0-0-0------|-x-x-5--5-5-5-5-5-5--5-5-5-5-5-5---|
      * * * * * * * *

e|-----------------------------------|-------0---------------------------|
B|-----------------------------------|-------0-0-------------------------|
G|-----------------------------------|-------1-1-1-----------------------|
D|-x-x-4--4-4-4-4-4-7--7-7-7--7-7----|-x-x-2-2-2-2-2--2-2-2-2-2-2--------|
A|-x-x-4--4-4-4-4-4-7--7-7-7--7-7----|-x-x-2-2-2-2-2--2-2-2-2-2-2--------|
E|-x-x-2--2-2-2-2-2-5--5-5-5--5-5----|-x-x-0-0-0-0-0--0-0-0-0-0-0--------|

e|------------------------------------|------------------------------------|
B|------------------------------------|------------------------------------|
G|-----------------x-x-6--6-6-6-6-6-6-|-----------------x-x-6--6-6-6-6-6-6-|
D|-x-x-6-6-6-6--6--x-x-6--6-6-6-6-6-6-|-x-x-6--6-6-6-6--x-x-6--6-6-6-6-6-6-|
A|-x-x-6-6-6-6--6--x-x-4--4-4-4-4-4-4-|-x-x-6--6-6-6-6--x-x-4--4-4-4-4-4-4-|
E|-x-x-4-4-4-4--4---------------------|-x-x-4--4-4-4-4---------------------|

e|-------------------------------------------------------------------------|
B|-------------------------------------------------------------------------|
G|------------------------------------x-x-4--4---2----x-x-4--4-4-4-4-4-----|
D|-x-x-7--7-7-7-7--x-x-4--4-4-4--4-4--x-x-4--4---2-2--x-x-4--4-4-4-4-4-----|
A|-x-x-7--7-7-7-7--x-x-4--4-4-4--4-4--x-x-2--2---0-2--x-x-2--2-2-2-2-2-----|
E|-x-x-5--5-5-5-5--x-x-2--2-2-2--2-2-----------0---0-------------------0-0-|



VERSE 2 (1:06-1:30)

Guitar 1
e|-----------------------------------|-----------------------------------|
B|-----------------------------------|-----------------------------------|
G|-----------------------------------|-----------------------------------|
D|-2--2-2-2-2-2-2-2-2-2-2-2-2-2------|-x-x-7--7-7-7-7-7-7--7-7--7-7-7----|
A|-2--2-2-2-2-2-2-2-2-2-2-2-2-2------|-x-x-7--7-7-7-7-7-7--7-7--7-7-7----|
E|-0--0-0-0-0-0-0-0-0-0-0-0-0-0------|-x-x-5--5-5-5-5-5-5--5-5--5-5-5----|
      * * * * * * *

e|-----------------------------------|-------0---------------------------|
B|-----------------------------------|-------0-0-------------------------|
G|-----------------------------------|-------1-1-1-----------------------|
D|-x-x-4--4-4-4-4-4-7--7-7-7--7-7----|-x-x-2-2-2-2-2--2-2-2-2-2-2--------|
A|-x-x-4--4-4-4-4-4-7--7-7-7--7-7----|-x-x-2-2-2-2-2--2-2-2-2-2-2--------|
E|-x-x-2--2-2-2-2-2-5--5-5-5--5-5----|-x-x-0-0-0-0-0--0-0-0-0-0-0--------|

e|-----------------------------------|----------------------------------|
B|-----------------------------------|----------------------------------|
G|-----------------x-x-6--6-6-6--6-6-|----------------x-x-6--6-6--6-6-6-|
D|-x-x-6-6-6-6--6--x-x-6--6-6-6--6-6-|-x-x-6--6--6-6--x-x-6--6-6--6-6-6-|
A|-x-x-6-6-6-6--6--x-x-4--4-4-4--4-4-|-x-x-6--6--6-6--x-x-4--4-4--4-4-4-|
E|-x-x-4-4-4-4--4--------------------|-x-x-4--4--4-4--------------------|

e|------------------------------------|
B|------------------------------------|
G|------------------------------------|
D|-x-x-7--7-7-7-7--x-x-4--4-4-4--4-4--|
A|-x-x-7--7-7-7-7--x-x-4--4-4-4--4-4--|
E|-x-x-5--5-5-5-5--x-x-2--2-2-2--2-2--|

e|----------------------------------------------------------|
B|----------------------------------------------------------|
G|-x-x-4--4---2----4--4-4---2----4--4-4---2----4--4-4-4-4-4-|
D|-x-x-4--4---2-2--4--4-4---2-2--4--4-4---2-2--4--4-4-4-4-4-|
A|-x-x-2--2---0-2--2--2-2---0-2--2--2-2---0-2--2--2-2-2-2-2-|
E|----------0---0---------0---0---------0---0---------------|



PRE-CHORUS (1:30-1:40)

Guitar 1
e|----------------------------------------------------------------|
B|----------------------------------------------------------------|
G|----------------------------------------------------------------|
D|-2-2-7--7-7-7-7-7-7-7-7-7-7-7-7--2-2-7--7-7-7-7-7-7-7-7-7-7-7-7-|
A|-2-2-7--7-7-7-7-7-7-7-7-7-7-7-7--2-2-7--7-7-7-7-7-7-7-7-7-7-7-7-|
E|-0-0-5--5-5-5-5-5-5-5-5-5-5-5-5--0-0-5--5-5-5-5-5-5-5-5-5-5-5-5-|

e|----------------------------------------------------------------|
B|----------------------------------------------------------------|
G|-----4--4-4-4-4-4-4-4-4-4-4-4-4----4--4-4-4-4----4----4---------|
D|-2-2-4--4-4-4-4-4-4-4-4-4-4-4-4--2-4--4-4-4-4--2-4--2-4--2------|
A|-2-2-2--2-2-2-2-2-2-2-2-2-2-2-2--2-2--2-2-2-2--2-2--2-2--2------|
E|-0-0-----------------------------0-------------0----0----0--12\-|



CHORUS (1:41-2:04)

Guitar 1
e|-------------------------------------------------------------|
B|-------------------------------------------------------------|
G|-9--9-9-9-9--------------------------------------------------|
D|-9--9-9-9-9--x-9--9-9-9--9-9--x-x-7--7-7-7-7-7-7--7-7-7--7-7-|
A|-7--7-7-7-7--x-9--9-9-9--9-9--x-x-7--7-7-7-7-7-7--7-7-7--7-7-|
E|-------------x-7--7-7-7--7-7--x-x-5--5-5-5-5-5-5--5-5-5--5-5-|

e|-------------------------------------------------------------------|
B|-------------------------------------------------------------------|
G|-x-x-9--9-9-9-9----------------------------------------------------|
D|-x-x-9--9-9-9-9--x-x-9--9-9-9--9-9--x-x-7--7-7-7-7-7-7--7-7-7--7-7-|
A|-x-x-7--7-7-7-7--x-x-9--9-9-9--9-9--x-x-7--7-7-7-7-7-7--7-7-7--7-7-|
E|-----------------x-x-7--7-7-7--7-7--x-x-5--5-5-5-5-5-5--5-5-5--5-5-|

e|-------------------------------------------------------------------|
B|-------------------------------------------------------------------|
G|-x-x-9--9-9-9-9-------------------------------------------x-5--5-5-|
D|-x-x-9--9-9-9-9--x-x-9--9-9-9--9-9--x-x-7--7-7-7-7-7-7--7-x-5--5-5-|
A|-x-x-7--7-7-7-7--x-x-9--9-9-9--9-9--x-x-7--7-7-7-7-7-7--7-x-3--3-3-|
E|-----------------x-x-7--7-7-7--7-7--x-x-5--5-5-5-5-5-5--5----------|

e|----------------------------------------------------------------------|
B|----------------------------------------------------------------------|
G|-x-x-9--9-9-9-9-------------------------------------------------------|
D|-x-x-9--9-9-9-9--x-x-9--9-9-9--9-9--x-x-7--7-7-7-7-7-7--7-7-7-7-7-7---|
A|-x-x-7--7-7-7-7--x-x-9--9-9-9--9-9--x-x-7--7-7-7-7-7-7--7-7-7-7-7-7---|
E|-----------------x-x-7--7-7-7--7-7--x-x-5--5-5-5-5-5-5--5-5-5-5-5-5-0-|

e|-----------------------------------|
B|-----------------------------------|
G|-----------------------------------|
D|-4--7------------------------------|
A|-4--7------------------------------|
E|-2--5------------------------------|



INTRO (2:04-2:20)

Guitar 1
e|-----------------|-----------------|-----------------|-----------------|
B|-----------------|-----------------|-----------------|-----------------|
G|-9-9-9-9-9-9-9-9-|-9-9-9-9-9-9-9-9-|-9-9-9-9-9-9-9-9-|-9-9-9-9-9-9-9-9-|
D|-----------------|-----------------|-----------------|-----------------|
A|-7-7-7-7-7-7-7-7-|-7-7-7-7-7-7-7-7-|-7-7-7-7-7-7-7-7-|-7-7-7-7-7-7-7-7-|
E|-----------------|-----------------|-----------------|-----------------|

Guitar 2
e|-----------------------------------------------------------------------|
B|-----------------------------------------------------------------------|
G|-----------------------------------------------------------------------|
D|-----------------------------------------------------------------------|
A|-----------------------------------------------------------------------|
E|-----------------------------------------------------------------------|

Guitar 1
e|-----------------|-----------------|-----------------|-----------------|
B|-----------------|-----------------|-----------------|-----------------|
G|-9-9-9-9-9-9-9-9-|-9-9-9-9-9-9-9-9-|-8-8-8-8-8-8-8-8-|-8-8-8-8-8-8-8-8-|
D|-----------------|-----------------|-----------------|-----------------|
A|-7-7-7-7-7-7-7-7-|-7-7-7-7-7-7-7-7-|-6-6-6-6-6-6-6-6-|-6-6-6-6-6-6-6-6-|
E|-----------------|-----------------|-----------------|-----------------|

Guitar 2
e|-4-4-4-------4-4-4-------4-4-----------4-4-4-------4-4-4-----4-4-------|
B|-------5-5-5-------5-5-5-----5-5-4-4-4-------4-4-4-------4-4-----------|
G|-----------------------------------------------------------------------|
D|-----------------------------------------------------------------------|
A|-----------------------------------------------------------------------|
E|-----------------------------------------------------------------------|

Guitar 1
e|-----------------|-----------------|-----------------|-----------------|
B|-----------------|-----------------|-----------------|-----------------|
G|-9-9-9-9-9-9-9-9-|-9-9-9-9-9-9-9-9-|-9-9-9-9-9-9-9-9-|-9-9-9-9-9-9-9-9-|
D|-----------------|-----------------|-----------------|-----------------|
A|-7-7-7-7-7-7-7-7-|-7-7-7-7-7-7-7-7-|-7-7-7-7-7-7-7-7-|-7-7-7-7-7-7-7-7-|
E|-----------------|-----------------|-----------------|-----------------|

Guitar 2
e|-4-4-4-------4-4-4-------4-4-----5-5-5-------5-5-----------------------|
B|-------5-5-5-------5-5-5-----5-5-------5-5-5---------------------------|
G|-----------------------------------------------------------------------|
D|-----------------------------------------------------------------------|
A|-----------------------------------------------------------------------|
E|--------------------------------------------------\\\---(pick-slide)---|



INTERLUDE (2:21-2:41)

Guitar 1
e|-------0---------------------------|-----------------------------------|
B|-------0---------------------------|-----------------------------------|
G|-------1---------------------------|-----------------------------------|
D|-x-x-2-2-2--2-2--2-2-2-2-2-2-------|-x-x-6--6-6-6-6-6-6--6-6-6-6-6-6---|
A|-x-x-2-2-2--2-2--2-2-2-2-2-2-------|-x-x-6--6-6-6-6-6-6--6-6-6-6-6-6---|
E|-x-x-0-0-0--0-0--0-0-0-0-0-0-------|-x-x-4--4-4-4-4-4-4--4-4-4-4-4-4---|

Guitar 2
e|-----------------------------------------------------------------------|
B|-----------------------------------------------------------------------|
G|-----------------------------------------------------------------------|
D|-----------------------------------------------------------------------|
A|-----------------------------------------------------------------------|
E|-----------------------------------------------------------------------|

Guitar 1
e|-----------------------------------|-----------------------------------|
B|-----------------------------------|-----------------------------------|
G|-x-x-6--6--6-6-6-6--6-6-6-6-6-6----|-----------------------------------|
D|-x-x-6--6--6-6-6-6--6-6-6-6-6-6----|-x-x-7--7-7-7-7-7-7--7-7-7-7-7-7-7-|
A|-x-x-4--4--4-4-4-4--4-4-4-4-4-4----|-x-x-7--7-7-7-7-7-7--7-7-7-7-7-7-7-|
E|-----------------------------------|-x-x-5--5-5-5-5-5-5--5-5-5-5-5-5-5-|

Guitar 2
e|-------------------------------------------------------------------------|
B|-------------------------------------------------------------------------|
G|-------------------------------------------------------------------------|
D|-------------------------------------------------------------------------|
A|-------------------------------------------------------------------------|
E|-------------------------------------------------------------------------|

Guitar 1
e|-------0---------------------------|-----------------------------------|
B|-------0---------------------------|-----------------------------------|
G|-------1---------------------------|-----------------------------------|
D|-x-x-2-2-2--2-2--2-2-2-2-2-2-------|-x-x-6--6-6-6-6-6-6--6-6-6-6-6-6---|
A|-x-x-2-2-2--2-2--2-2-2-2-2-2-------|-x-x-6--6-6-6-6-6-6--6-6-6-6-6-6---|
E|-x-x-0-0-0--0-0--0-0-0-0-0-0-------|-x-x-4--4-4-4-4-4-4--4-4-4-4-4-4---|

Guitar 2
e|-----------------------------------------------------------------------|
B|-5-----5----5-----5----5---4--4-4-5--5-4--2--0--0-0-0------------------|
G|----4-----4----4-----4---4---------------------------------------------|
D|-----------------------------------------------------------------------|
A|-----------------------------------------------------------------------|
E|-----------------------------------------------------------------------|

Guitar 1
e|-----------------|-----------------|-----------------|-----------------|
B|-----------------|-----------------|-----------------|-----------------|
G|-9-9-9-9-8-8-8-8-|-4-4-4-4-8-8-8-8-|-9-9-9-9-8-8-8-8-|-9-9-9-9-9-------|
D|-----------------|-----------------|-----------------|-----------------|
A|-7-7-7-7-6-6-6-6-|-2-2-2-2-6-6-6-6-|-7-7-7-7-6-6-6-6-|-7-7-7-7-7-------|
E|-----------------|-----------------|-----------------|-----------------|



PRE-CHORUS (2:41-2:52)

Guitar 1
e|----------------------------------------------------------------|
B|----------------------------------------------------------------|
G|-----4--4-4-4-4-4-4-4-4-4-4-4-4------4--4-4-4-4-4-4-4-4-4-4-4-4-|
D|-2-2-4--4-4-4-4-4-4-4-4-4-4-4-4--2-2-4--4-4-4-4-4-4-4-4-4-4-4-4-|
A|-2-2-2--2-2-2-2-2-2-2-2-2-2-2-2--2-2-2--2-2-2-2-2-2-2-2-2-2-2-2-|
E|-0-0-----------------------------0-0----------------------------|

e|----------------------------------------------------------------|
B|----------------------------------------------------------------|
G|-------------------------------------4--4-4-4-4----4----4-------|
D|-2-2-7--7-7-7-7-7-7-7-7-7-7-7-7--2-2-4--4-4-4-4--2-4--2-4--2-2--|
A|-2-2-7--7-7-7-7-7-7-7-7-7-7-7-7--2-2-2--2-2-2-2--2-2--2-2--2-2--|
E|-0-0-5--5-5-5-5-5-5-5-5-5-5-5-5--0-0-------------0----0----0-0--|



CHORUS (2:53-3:14)

Guitar 1
e|-------------------------------------------------------------------|
B|-------------------------------------------------------------------|
G|-x-x-9--9-9-9-9----------------------------------------------------|
D|-x-x-9--9-9-9-9--x-x-9--9-9-9--9-9--x-x-7--7--7-7-7-7--7-7-7--7-7--|
A|-x-x-7--7-7-7-7--x-x-9--9-9-9--9-9--x-x-7--7--7-7-7-7--7-7-7--7-7--|
E|-----------------x-x-7--7-7-7--7-7--x-x-5--5--5-5-5-5--5-5-5--5-5--|

e|-------------------------------------------------------------------|
B|-------------------------------------------------------------------|
G|-x-x-9--9--9-9-----------------------------------------------------|
D|-x-x-9--9--9-9--x-x-9--9-9-9--9-9--x-x-7--7-7-7-7-7-7--7-7--7-7-7--|
A|-x-x-7--7--7-7--x-x-9--9-9-9--9-9--x-x-7--7-7-7-7-7-7--7-7--7-7-7--|
E|----------------x-x-7--7-7-7--7-7--x-x-5--5-5-5-5-5-5--5-5--5-5-5--|

e|-------------------------------------------------------------------|
B|-------------------------------------------------------------------|
G|-x-x-9--9--9-9------------------------------------------x-5--5-5---|
D|-x-x-9--9--9-9--x-x-9--9-9--9-9-9--x-x-7--7--7-7-7-7--7-x-5--5-5---|
A|-x-x-7--7--7-7--x-x-9--9-9--9-9-9--x-x-7--7--7-7-7-7--7-x-3--3-3---|
E|----------------x-x-7--7-7--7-7-7--x-x-5--5--5-5-5-5--5------------|

e|----------------------------------------------------------------------|
B|----------------------------------------------------------------------|
G|-x-x-9--9--9-9--------------------------------------------------------|
D|-x-x-9--9--9-9--x-x-9--9-9-9--9-9--x-x-7--7-7-7-7-7-7--7-7-7----------|
A|-x-x-7--7--7-7--x-x-9--9-9-9--9-9--x-x-7--7-7-7-7-7-7--7-7-7----------|
E|----------------x-x-7--7-7-7--7-7--x-x-5--5-5-5-5-5-5--5-5-5--12\-0-0-|



OUTRO (3:14-4:06)

Guitar 1
e|------------------------------------------------------------------|
B|------------------------------------------------------------------|
G|------------------------------------------------------------------|
D|-2-2-2-2-2-2-2-2-2-2-2-2-2-2-2--x-x-6-6-6-6-6-6-6-6-6-6-6-6-6-6-6-|
A|-2-2-2-2-2-2-2-2-2-2-2-2-2-2-2--x-x-6-6-6-6-6-6-6-6-6-6-6-6-6-6-6-|
E|-0-0-0-0-0-0-0-0-0-0-0-0-0-0-0--x-x-4-4-4-4-4-4-4-4-4-4-4-4-4-4-4-|

e|------------------------------------------------------------------|
B|------------------------------------------------------------------|
G|-x-x-6-6-6-6-6-6-6-6-6-6-6-6-6-6-6--------------------------------|
D|-x-x-6-6-6-6-6-6-6-6-6-6-6-6-6-6-6--x-x-7--7--7-7-7-7--7-7--7-7-7-|
A|-x-x-4-4-4-4-4-4-4-4-4-4-4-4-4-4-4--x-x-7--7--7-7-7-7--7-7--7-7-7-|
E|------------------------------------x-x-5--5--5-5-5-5--5-5--5-5-5-|

e|----------------------------------------------------------------------|
B|----------------------------------------------------------------------|
G|----------------------------------------------------------------------|
D|-x-x-2-2-2-2-2-2-2-2-2-2-2-2-2-2-2--x-x-6-6-6-6-6-6-6-6-6-6-6-6-6-6-6-|
A|-x-x-2-2-2-2-2-2-2-2-2-2-2-2-2-2-2--x-x-6-6-6-6-6-6-6-6-6-6-6-6-6-6-6-|
E|-x-x-0-0-0-0-0-0-0-0-0-0-0-0-0-0-0--x-x-4-4-4-4-4-4-4-4-4-4-4-4-4-4-4-|

e|----------------------------------------------------------------------|
B|----------------------------------------------------------------------|
G|-x-x-6-6-6-6-6-6-6-6-6-6-6-6-6-6-6------------------------------------|
D|-x-x-6-6-6-6-6-6-6-6-6-6-6-6-6-6-6--x-x-7--7--7-7-7-7--7-7--7---------|
A|-x-x-4-4-4-4-4-4-4-4-4-4-4-4-4-4-4--x-x-7--7--7-7-7-7--7-7--7---------|
E|------------------------------------x-x-5--5--5-5-5-5--5-5--5-12\-0---|

e|-----------------------------------------------------------------------|
B|-----------------------------------------------------------------------|
G|-----------------------------------------------------------------------|
D|-2-----------2-2---------------------2-----------2-2-------------------|
A|-2-----------0-2---------------------2-----------2-2-------------------|
E|-0-----------0-0---------------------0-----------0-0-------------------|

Guitar 2
e|-----------------|-----------------|-----------------|-----------------|
B|-----------------|-----------------|-----------------|-----------------|
G|-9-9-9-9-9-9-9-9-|-9-9-9-9-9-9-9-9-|-9-9-9-9-9-9-9-9-|-9-9-9-9-9-9-9-9-|
D|-----------------|-----------------|-----------------|-----------------|
A|-7-7-7-7-7-7-7-7-|-7-7-7-7-7-7-7-7-|-7-7-7-7-7-7-7-7-|-7-7-7-7-7-7-7-7-|
E|-----------------|-----------------|-----------------|-----------------|

Guitar 1
e|-----------------------------------------------------------------------|
B|-----------------------------------------------------------------------|
G|-----------------------------------------------------------------------|
D|-2-----------2-2---------------------2---------------------------------|
A|-2-----------2-2---------------------2---------------------------------|
E|-0-----------0-0---------------------0---------------------------------|

Guitar 2
e|-----------------|-----------------|-----------------|-----------------|
B|-----------------|-----------------|-----------------|-----------------|
G|-9-9-9-9-9-9-9-9-|-9-9-9-9-9-9-9-9-|-9---------------|-----------------|
D|-----------------|-----------------|-----------------|-----------------|
A|-7-7-7-7-7-7-7-7-|-7-7-7-7-7-7-7-7-|-7---------------|-----------------|
E|-----------------|-----------------|-----------------|-----------------|

            
            
Suggest correction
Creating personal tab
Creating personal tab
You can edit any tab online and save it as your Personal.

You can edit, replace or remove any tab part or add personal notes – all changes will be seen only by you.

Personal tabs can be accessed anytime from any device, even offline.
Learn more »
Give kudos to tab author, rate the tab!
1 2 3 4 5
comments
print report bad tab
guest
You may want to rate the tab now too:
select rating
Wanna post a correction for this tab? Suggest correction