Oops, an error
Loading. Please wait.

Little Boy Named Train Tab

version 1
version 1

Whole song

Interactive

3,539 views 3 this week
no commentswrite comment
1 2 3 4 5
please rate
add to favorites
launch autoscroll
font size
0
reset
how to read this tab
guitar tuner
Autoscroll
slow
fast
+/-
esc
set tempo
stop
Help us to improve Ultimate-Guitar.com Take our survey!
×
Author
Difficulty
iScottie 103
novice
-------------------------------------------------------------------------------
                             Little Boy Named Train - Green Day
-------------------------------------------------------------------------------
Tabbed by: iScottie
Tuning: Standard

Track: 7
Album: ¡Tré!

Intro:

Guitar 1:

e|---------------------------------------------------------------------------|
B|---------------------------------------------------------------------------|
G|---111111111111----------------------1111----------------------------------|
D|---111111111111---1111---99---1111---1111----------------------------------| x5
A|----9-9-9-9-9-9---1111---99---1111----9-9----------------------------------|
E|-------------------9-9---77----9-9-----------------------------------------|

Guitar 2 (comes in after Guitar 1 plays their part 3x):

e|---------------------------------------------------------------------------|
B|---11-11-11-11-7-12-12-11-11-11-11-11-11-11-7-12-11-9-7b-------------------|
G|---------------------------------------------------------------------------|
D|---------------------------------------------------------------------------|
A|---------------------------------------------------------------------------|
E|---------------------------------------------------------------------------|

Verse 1:

e|---------------------------------------------------------------------------|
B|---------------------------------------------------------------------------|
G|---1111111111111111111111111111111111--------------------------------------|
D|---1111111111111111111111111111111111---11-11111111111111111111------------|
A|----9-9-9-9-9-9-9-9-9-9-9-9-9-9-9-9-9---11-11111111111111111111------------|
E|-----------------------------------------9--9-9-9-9-9-9-9-9-9-9------------|

Where did you come from?
Where have you been?
Looks like you fell into the trash bin

e|---------------------------------------------------------------------------|
B|---------------------------------------------------------------------------|
G|------------9999----------------9999------------111111111111111111111111---|
D|---999999---9999---9999999999---9999---999999---111111111111111111111111---|
A|---999999---7777---9999999999---7777---999999----9-9-9-9-9-9-9-9-9-9-9-9---|
E|---777777----------7777777777----------777777------------------------------|

I'm catching train, I'm crashing a car
Back in for daylight shooting for the stars

Pre-Chorus 1:

e|---------------------------------------------------------------------------|
B|---------------------------------------------------------------------------|
G|-----------------------------------------11111111111111111111--------------|
D|---111111111111111111111111---99999999---11111111111111111111--------------| x2
A|---111111111111111111111111---99999999----9-9-9-9-9-9-9-9-9-9--------------|
E|----9-9-9-9-9-9-9-9-9-9-9-9---77777777-------------------------------------|

Like a lifelong daisy chain
Of my imagination
A rat inside a maze
I got no destination

Chorus 1:

Note: Palm Mute the second part of the Chorus.

e|---------------------------------------------------------------------------|
B|---------------------------------------------------------------------------|
G|------------99---11111111111111111111--------------------------------------|
D|---999999---99---11111111111111111111--------------------------------------| x3
A|---999999---77----9-9-9-9-9-9-9-9-9-9--------------------------------------|
E|---777777------------------------------------------------------------------|

Cause I'm a little boy named Train
Ask me again, I'll tell you the same
Little boy named Train

e|---------------------------------------------------------------------------|
B|---------------------------------------------------------------------------|
G|---------------------------------------------------------------------------|
D|---11111111111111111111111111111111111111----------------------------------|
A|---11111111111111111111111111111111111111----------------------------------|
E|----9-9-9-9-9-9-9-9-9-9-9-9-9-9-9-9-9-9-9----------------------------------|

Don't know where I come from
But I know where I have been

Post-Chorus 1:

e|---------------------------------------------------------------------------|
B|---------------------------------------------------------------------------|
G|---111111111111----------------------1111----------------------------------|
D|---111111111111---1111---99---1111---1111----------------------------------| x2
A|----9-9-9-9-9-9---1111---99---1111----9-9----------------------------------|
E|-------------------9-9---77----9-9-----------------------------------------|

Verse 2:

Note: Palm Mute the first part of the Verse.

e|---------------------------------------------------------------------------|
B|---------------------------------------------------------------------------|
G|---1111111111111111111111111111111111--------------------------------------|
D|---1111111111111111111111111111111111---11-11111111111111111111------------|
A|----9-9-9-9-9-9-9-9-9-9-9-9-9-9-9-9-9---11-11111111111111111111------------|
E|-----------------------------------------9--9-9-9-9-9-9-9-9-9-9------------|

Serious people are funny to me
Funny people seem so serious

e|---------------------------------------------------------------------------|
B|---------------------------------------------------------------------------|
G|------------9999----------------9999------------111111111111111111111111---|
D|---999999---9999---9999999999---9999---999999---111111111111111111111111---|
A|---999999---7777---9999999999---7777---999999----9-9-9-9-9-9-9-9-9-9-9-9---|
E|---777777----------7777777777----------777777------------------------------|

I'm always lost and nothing will change
Give me directions and I'll get lost again

Pre-Chorus 2:

e|---------------------------------------------------------------------------|
B|---------------------------------------------------------------------------|
G|-----------------------------------------11111111111111111111--------------|
D|---111111111111111111111111---99999999---11111111111111111111--------------| x2
A|---111111111111111111111111---99999999----9-9-9-9-9-9-9-9-9-9--------------|
E|----9-9-9-9-9-9-9-9-9-9-9-9---77777777-------------------------------------|

Like a lifelong daisy chain
Of my imagination
A rat inside a maze
I got no destination

Chorus 2:

Note: Palm Mute the second part of the Chorus.

e|---------------------------------------------------------------------------|
B|---------------------------------------------------------------------------|
G|------------99---11111111111111111111--------------------------------------|
D|---999999---99---11111111111111111111--------------------------------------| x3
A|---999999---77----9-9-9-9-9-9-9-9-9-9--------------------------------------|
E|---777777------------------------------------------------------------------|

Cause I'm a little boy named Train
Ask me again, I'll tell you the same
Little boy named Train

e|---------------------------------------------------------------------------|
B|---------------------------------------------------------------------------|
G|---------------------------------------------------------------------------|
D|---11111111111111111111111111111111111111----------------------------------|
A|---11111111111111111111111111111111111111----------------------------------|
E|----9-9-9-9-9-9-9-9-9-9-9-9-9-9-9-9-9-9-9----------------------------------|

Don't know where I come from
But I know where I have been

Post-Chorus 2:

Guitar 1:

e|---------------------------------------------------------------------------|
B|---------------------------------------------------------------------------|
G|---111111111111----------------------1111----------------------------------|
D|---111111111111---1111---99---1111---1111----------------------------------| x4
A|----9-9-9-9-9-9---1111---99---1111----9-9----------------------------------|
E|-------------------9-9---77----9-9-----------------------------------------|

Guitar 2 (comes in after Guitar 1 plays their part 2x):

e|---------------------------------------------------------------------------|
B|---11-11-11-11-7-12-12-11-11-11-11-11-11-11-7-12-11-9-7b-------------------|
G|---------------------------------------------------------------------------|
D|---------------------------------------------------------------------------|
A|---------------------------------------------------------------------------|
E|---------------------------------------------------------------------------|

Solo:

Guitar 1 (Replays the Verse)

Guitar 2:

e|---------------------------------------------------------------------------|
B|---------------------------------------------------------------------------|
G|---------------------------------------------------------------------------|
D|---8-8-8-8-4-9-9-8-8-8-8-8-8-8-4-9-9-8-4-6-6-------------------------------|
A|---------------------------------------------------------------------------|
E|---------------------------------------------------------------------------|

e|---------------------------------------------------------------------------|
B|---------------------------------------------------------------------------|
G|---8-8-8-8-4-9-9-8-8-8-8-8-8-8-4-9-9-8-4-3-3-------------------------------|
D|---------------------------------------------------------------------------|
A|---------------------------------------------------------------------------|
E|---------------------------------------------------------------------------|

Pre-Chorus 3:

e|---------------------------------------------------------------------------|
B|---------------------------------------------------------------------------|
G|-----------------------------------------11111111111111111111--------------|
D|---111111111111111111111111---99999999---11111111111111111111--------------| x2
A|---111111111111111111111111---99999999----9-9-9-9-9-9-9-9-9-9--------------|
E|----9-9-9-9-9-9-9-9-9-9-9-9---77777777-------------------------------------|

Like a lifelong daisy chain
Of my imagination
A rat inside a maze
I got no destination

Chorus 3:

Note: Palm Mute the second part of the Chorus.

e|---------------------------------------------------------------------------|
B|---------------------------------------------------------------------------|
G|------------99---11111111111111111111--------------------------------------|
D|---999999---99---11111111111111111111--------------------------------------| x3
A|---999999---77----9-9-9-9-9-9-9-9-9-9--------------------------------------|
E|---777777------------------------------------------------------------------|

Cause I'm a little boy named Train
Ask me again, I'll tell you the same
Little boy named Train

e|---------------------------------------------------------------------------|
B|---------------------------------------------------------------------------|
G|---------------------------------------------------------------------------|
D|---11111111111111111111111111111111111111----------------------------------| x2
A|---11111111111111111111111111111111111111----------------------------------|
E|----9-9-9-9-9-9-9-9-9-9-9-9-9-9-9-9-9-9-9----------------------------------|

Don't know where I come from
But I know where I have been
I said I don't know where I come from
But I know where I have been

Post-Chorus 3 / Outro:

Guitar 1:

e|---------------------------------------------------------------------------|
B|---------------------------------------------------------------------------|
G|---111111111111----------------------1111----------------------------------|
D|---111111111111---1111---99---1111---1111----------------------------------| x4
A|----9-9-9-9-9-9---1111---99---1111----9-9----------------------------------|
E|-------------------9-9---77----9-9-----------------------------------------|

Guitar 2 (comes in after Guitar 1 plays their part 2x):

e|---------------------------------------------------------------------------|
B|---11-11-11-11-7-12-12-11-11-11-11-11-11-11-7-12-11-9-7b-------------------|
G|---------------------------------------------------------------------------|
D|---------------------------------------------------------------------------|
A|---------------------------------------------------------------------------|
E|---------------------------------------------------------------------------|

Both Guitars:

e|---------------------------------------------------------------------------|
B|---------------------------------------------------------------------------|
G|---11----------------------------------------------------------------------|
D|---11----------------------------------------------------------------------|
A|----9----------------------------------------------------------------------|
E|---------------------------------------------------------------------------|
Suggest correction
What's this?
You can suggest a correction to this tab. Community and Mods will review your correction and vote to approve or reject it.
comments
We did not receive enough feedback on this tab! Please rate:
print report bad tab
1 2 3 4 5
guest
You may want to rate the tab now too:
select rating
Please do not post tabs as comments. Select "correction" instead!