Oops, an error
Loading. Please wait.

Little Boy Named Train Tab

version 2
version 2

Whole song

Interactive

7,304 views 12 this week
no commentswrite comment
1 2 3 4 5
x 6
add to favorites
launch autoscroll
font size
0
reset
how to read this tab
guitar tuner
Autoscroll
slow
fast
+/-
esc
set tempo
stop
Help us to improve Ultimate-Guitar.com Take our survey!
×
Author
Difficulty
intermediate
Tabbed by: Carlosss_Uno
Tuning: Standard EADGBe
Green Day
Album: ¡Tré!

Key: * - palm mute

Intro:

Guitar 1:

e|--------------------------------------------------------------|
B|--------------------------------------------------------------|
G|---111111111111---------------------1111----------------------|
D|---111111111111--1111--99----1111---1111----------------------| 
A|---9-9-9-9-9-9---1111--99----1111----9-9----------------------|
E|------------------9-9--77-----9-9-----------------------------|

Guitar 2 (comes in after Guitar 1 plays their part 3x):

e|---------------------------------------------------------------|
B|---11-11-11-11-----12-12-11-11--11-11-11-11----12-11-----------|
G|---11-11-11-11--11-11-11-11-11--11-11-11-11-11-11-11-13-11-----|
D|----------------11--------------------------11-------13-11-----|
A|---------------------------------------------------------------|
E|---------------------------------------------------------------|

Verse 1:

e|---------------------------------------------------------------|
B|---------------------------------------------------------------|
G|------------------------------------6-6666666------------------|
D|-44444444444444444444444444444444---6-6666666------------------|
A|-44444444444444444444444444444444---4-4444444------------------|
E|-22222222222222222222222222222222------------------------------|

Where did you come from?
Where have you been?
Looks like you fell into the trash bin

e|---------------------------------------------------------------|
B|---------------------------------------------------------------|
G|---44444444444-----------44444444444444444444------------------|
D|---44444444444----22-----44444444444444444444----4-44444444444-|
A|---22222222222----22-----22222222222222222222----4-44444444444-|
E|------------------00-----------------------------2-22222222222-|

I'm catching train, I'm crashing a car
Back in for daylight shooting for the stars

Pre-Chorus 1:

e|---------------------------------------------------------------|
B|---------------------------------------------------------------|
G|----6666666666666666--4444444----------------------------------|
D|----6666666666666666--4444444---4-4444444----------------------|
A|----4444444444444444--2222222---4-4444444----------------------| x2
E|--------------------------------2-2222222----------------------|

Like a lifelong daisy chain
Of my imagination
A rat inside a maze
I got no destination

Chorus 1:

e|----------------------------------------------------|
B|----------------------------------------------------|
G|---44444--------------------------------------------|
D|---44444---22---4-4444444---------------------------| x3
A|---22222---22---4-4444444---------------------------|
E|-----------00---2-2222222---------------------------|

Cause I'm a little boy named Train
Ask me again, I'll tell you the same
Little boy named Train

     *******************************
e|----------------------------------------------------------------|
B|----------------------------------------------------------------|
G|---6666666666666666666666666666666------------------------------|
D|---6666666666666666666666666666666------------------------------|
A|---4444444444444444444444444444444------------------------------|
E|----------------------------------------------------------------|

Don't know where I come from
But I know where I have been

Repeat Intro


Post-Chorus 1:
e|---------------------------------------------------------------|
B|---------------------------------------------------------------|
G|------------------------------------6-66666666666--------------|
D|-44444444444444444444444444444444---6-66666666666--------------|
A|-44444444444444444444444444444444---4-44444444444--------------|
E|-22222222222222222222222222222222------------------------------|

Serious people are funny to me
Funny people seem so serious

e|---------------------------------------------------------------|
B|---------------------------------------------------------------|
G|---44444444444-----------44444444444444444444------------------|
D|---44444444444----22-----44444444444444444444----4-44444444444-|
A|---22222222222----22-----22222222222222222222----4-44444444444-|
E|------------------00-----------------------------2-22222222222-|

I'm always lost and nothing will change
Give me directions and I'll get lost again

Pre-Chorus 2:
e|---------------------------------------------------------------|
B|---------------------------------------------------------------|
G|----6666666666666666--4444444----------------------------------|
D|----6666666666666666--4444444---4-4444444----------------------|
A|----4444444444444444--2222222---4-4444444----------------------| x2
E|--------------------------------2-2222222----------------------|

Like a lifelong daisy chain
Of my imagination
A rat inside a maze
I got no destination

Chorus 2:



e|----------------------------------------------------|
B|----------------------------------------------------|
G|---44444--------------------------------------------|
D|---44444---22---4-4444444---------------------------| x3
A|---22222---22---4-4444444---------------------------|
E|-----------00---2-2222222---------------------------|

Cause I'm a little boy named Train
Ask me again, I'll tell you the same
Little boy named Train

     *********************************
e|----------------------------------------------------------------|
B|----------------------------------------------------------------|
G|---6666666666666666666666666666666666---------------------------|
D|---6666666666666666666666666666666666---------------------------|
A|---4444444444444444444444444444444444---------------------------|
E|----------------------------------------------------------------|

Don't know where I come from
But I know where I have been

Post-Chorus 2:

Guitar 1:

e|----------------------------------------------------------------|
B|----------------------------------------------------------------|
G|---111111111111----------------------1111-----------------------|
D|---111111111111---1111---99---1111---1111-----------------------| x4
A|----9-9-9-9-9-9---1111---99---1111----9-9-----------------------|
E|-------------------9-9---77----9-9------------------------------|

Guitar 2 (comes in after Guitar 1 plays their part 2x):


Solo:
Guitar 1 replays the verse

Guitar 2:
e|---------------------------------------------------------------|
B|---11-11-11-11-----12-12-11-11--11-11-11-11----12-11-----------|
G|---11-11-11-11--11-11-11-11-11--11-11-11-11-11-11-11-13-11-----|
D|----------------11--------------------------11-------13-11-----|
A|---------------------------------------------------------------|
E|---------------------------------------------------------------|

e|---------------------------------------------------------------|
B|---------------------------------------------------------------|
G|---------------------------------------------------------------|
D|---8-8-8-8-4-9-9-8-8-8-8-8-8-8-4-9-9-8-4-6-6-------------------|
A|---------------------------------------------------------------|
E|---------------------------------------------------------------|

e|---------------------------------------------------------------|
B|---------------------------------------------------------------|
G|---8-8-8-8-4-9-9-8-8-8-8-8-8-8-4-9-9-8-4-3-3-------------------|
D|---------------------------------------------------------------|
A|---------------------------------------------------------------|
E|---------------------------------------------------------------|


Pre-Chorus 3:

e|---------------------------------------------------------------|
B|---------------------------------------------------------------|
G|----6666666666666666--4444444----------------------------------|
D|----6666666666666666--4444444---4-4444444----------------------|
A|----4444444444444444--2222222---4-4444444----------------------| x2
E|--------------------------------2-2222222----------------------|

Like a lifelong daisy chain
Of my imagination
A rat inside a maze
I got no destination

Chorus 3:

.

e|----------------------------------------------------|
B|----------------------------------------------------|
G|---44444--------------------------------------------|
D|---44444---22---4-4444444---------------------------| x3
A|---22222---22---4-4444444---------------------------|
E|-----------00---2-2222222---------------------------|
Cause I'm a little boy named Train
Ask me again, I'll tell you the same
Little boy named Train

     **************************************************************
e|--------------------------------------------------------------------|
B|--------------------------------------------------------------------|
G|---66666666666666666666666666666666666666666666666666666666666666---|
D|---66666666666666666666666666666666666666666666666666666666666666---|
A|---44444444444444444444444444444444444444444444444444444444444444---|
E|--------------------------------------------------------------------|
Don't know where I come from
But I know where I have been
I said I don't know where I come from
But I know where I have been

Outro:

Guitar 1:

e|----------------------------------------------------------|
B|----------------------------------------------------------|
G|---111111111111----------------------1111-----------------|
D|---111111111111---1111---99---1111---1111-----------------| x4
A|----9-9-9-9-9-9---1111---99---1111----9-9-----------------|
E|-------------------9-9---77----9-9------------------------|

Guitar 2 (comes in after Guitar 1 plays their part 2x):

e|---------------------------------------------------------------|
B|---11-11-11-11-----12-12-11-11--11-11-11-11----12-11-----------|
G|---11-11-11-11--11-11-11-11-11--11-11-11-11-11-11-11-13-11-----|
D|----------------11--------------------------11-------13-11-----|
A|---------------------------------------------------------------|
E|---------------------------------------------------------------|

Both Guitars:

e|--------------------------------------------------------------|
B|--------------------------------------------------------------|
G|---11---------------------------------------------------------|
D|---11---------------------------------------------------------|
A|----9---------------------------------------------------------|
E|--------------------------------------------------------------|
Suggest correction
comments
print report bad tab
guest
You may want to rate the tab now too:
select rating
Wanna post a correction for this tab? Suggest correction