Oops, an error
Loading. Please wait.

Longview Tab

version 3
224,789 views 273 this week
18 commentsread comments
1 2 3 4 5
accurate
x 76
add to favorites
launch autoscroll
font size
0
reset
how to read this tab
guitar tuner
Autoscroll
slow
fast
+/-
esc
set tempo
stop
Help us to improve Ultimate-Guitar.com Take our survey!
×
Contributor
hclove 462
this songs asewome!


[Verse]
 play this at the end of every bass riff
e|---------|
B|---------|
G|-8-6-5-6-|
D|---------|
A|---------|
E|---------|

[Chorus]
e|-----------------------------|
B|-----------------------------|
G|-666666666666------------8-8-|
D|-6666666666668-8-8-8-6-6-8-8-|
A|-4444444444448-8-8-8-6-6-6-6-|
E|-------------6-6-6-6-4-4-----|

e|-----------------|
B|-----------------|
G|-------------8-8-|
D|-8-8-8-8-6-6-8-8-|x2
A|-8-8-8-8-6-6-6-6-|
E|-6-6-6-6-4-4-----|

e|---------------------|
B|---------------------|
G|-----------------8*\-|
D|-8-8-8-8-6-6-6-6-8*\-|
A|-8-8-8-8-6-6-6-6-6*\-|
E|-8-8-8-8-6-6-6-6-----|

[Verse]
e|---------|
B|---------|
G|-8-6-5-6-|
D|---------|
A|---------|
E|---------|

[Chorus]
e|-----------------------------|
B|-----------------------------|
G|-666666666666------------8-8-|
D|-6666666666668-8-8-8-6-6-8-8-|
A|-4444444444448-8-8-8-6-6-6-6-|
E|-------------6-6-6-6-4-4-----|

e|-----------------|
B|-------------8-8-|
G|-8-8-8-8-6-6-8-8-|
D|-8-8-8-8-6-6-6-6-|x2
A|-6-6-6-6-4-4-----|
E|-----------------|

e|-----------------|
B|-----------------|
G|-----------------|
D|-8-8-8-8-6-6-6-6-|
A|-8-8-8-8-6-6-6-6-|
E|-6-6-6-6-4-4-4-4-|

[Bridge]
e|-----------------|
B|-----------------|
G|-8-8-8-8-6-6-6-6-|
D|-8-8-8-8-6-6-6-6-|x4
A|-6-6-6-6-4-4-4-4-|
E|-----------------|

e|-----------------|
B|-----------------|
G|-------------8-8-|
D|-8-8-8-8-6-6-8-8-|x3
A|-8-8-8-8-6-6-6-6-|
E|-6-6-6-6-4-4-----|

e|---------------------|
B|---------------------|
G|-----------------8*\-|
D|-8-8-8-8-6-6-6-6-8*\-|
A|-8-8-8-8-6-6-6-6-6*\-|
E|-6-6-6-6-4-4-4-4-----|

[Verse]
e|---------|
B|---------|
G|-8-6-5-6-|
D|---------|
A|---------|
E|---------|

[Chorus]
e|-----------------------------------------|
B|-----------------------------------------|
G|-666666666666666666666666------------8-8-|
D|-6666666666666666666666668-8-8-8-6-6-8-8-|
A|-4444444444444444444444448-8-8-8-6-6-6-6-|
E|-------------------------6-6-6-6-4-4-----|

e|-----------------|
B|-----------------|
G|-------------8-8-|
D|-8-8-8-8-6-6-8-8-|x6
A|-8-8-8-8-6-6-6-6-|
E|-6-6-6-6-4-4-----|

e|-----------------|
B|-----------------|
G|-------------8*\-|
D|-8-8-8-8-6-6-8*\-|
A|-8-8-8-8-6-6-6*\-|
E|-6-6-6-6-4-4-----|

[Outro]
e|-------------------11*\-|
B|-8-9-9-6*\--8-9-11------|
G|------------------------|
D|------------------------|keep playin this till the end
A|------------------------|
E|------------------------|



some of you want to know the bass part, so here it is

G|----------------------------------|
D|----8-6-5---6-5-----8-6-5-5-5-5-5-|
A|-\6------64-----486---------------|
E|----------------------------------|

only slide the first time. mike does somthing different sometimes, but this 
is almost the same thing.



thats it!

if you have questions, need the lyrics, or just wanna tell me how great i am,
email me at fuser158@sbcglobal.net

ultimate guitar, for some people its the only good thing in life

                                          ~
rate this, por favor (thats please in espanolo)



************************************

*=let ring
\=slide down

************************************
comments
print report bad tab
18 comments total. Showing first comments.
+8 reply
wEiRdDeHi 295 wrote on January 4 2005, 12:00 am

You don't play that thing at the end of every bass riff... it's part of the bass itself.

0 reply
dirtdigger 11 wrote on March 21 2006, 12:25 am

first of all, it is tuned a half step down. Second you don't play that bass thing at the end of each riff. Third the ending is with more than one string.DUH!!!!!

0 reply
Zildjian123 155 wrote on May 23 2006, 09:16 pm

The bass part is wrong at the bottom. (stick to guitar playing)

I want to post or [tab]
guest
You may want to rate the tab now too:
select rating
Please do not post tabs as comments. Select "correction" instead!