Oops, an error
Loading. Please wait.
We have an official Longview tab made by UG professional guitarists. Check out the tab »
×
28,422 views 21 this week
8 commentsread comments
1 2 3 4 5
x 13
add to favorites
launch autoscroll
font size
0
reset
guitar tuner
backing track
0:00
0:00
Autoscroll
slow
fast
+/-
esc
set tempo
stop
Author
Difficulty
intermediate
Longview
by GREEN DAY
This is how you play it if you dont want to tune down your bass. It was originally
recorded with a half tuned bass (like all the other songs on the album). Its also
easier than the other tabs. 

Intro(Palm Muted)- 0:06
G---------|
D---------|
A---18/7--| -On the intro, slide up but keep picking as you slide and then go     
E---------|  right into the verse.

Verse- 0:08
G------------------------------8-6-5-6--|
D-----8-6-5---6-5--------8-6-5----------|
A---6-------4-----4-4/6-----------------|x1
E---------------------------------------|

G--------------------------------8-6-5-6--|
D-------8-6-5---6-5--------8-6-5----------|
A---4/6-------4-----4-4/6-----------------|x4
E-----------------------------------------|

G--------------------------------|
D-------8-6-5---6-5--------8-6-5-|
A---4/6-------4-----4-4/6--------|x1
E--------------------------------|

Pre Chorus- 0:47
G------------|
D------------|
A---44444444-|x1
E------------|

Chorus- 0:49
G-------------------|
D-------------------|
A---------------6-6-|x3
E---6-6-6-6-4-4-----|

G--------------------|
D--------------------|
A--------------------|x1
E---6-6-6-6-4-4-4-4--|

Post Chorus- 1:01
G-----8----8--6-5-----|
D-------6h8-8-----8-6-|
A---6-----------------|x2
E---------------------|

Verse- 1:08
G--------------------------------8-6-5-6--|
D-------8-6-5---6-5--------8-6-5----------|
A---4/6-------4-----4-4/6-----------------|x4
E-----------------------------------------|

G--------------------------------|
D-------8-6-5---6-5--------8-6-5-|
A---4/6-------4-----4-4/6--------|x1
E--------------------------------|
 
Pre Chorus- 1:33
G------------|
D------------|
A---44444444-|
E------------|

Chorus- 1:35
G-------------------|
D-------------------|
A---------------6-6-|x3
E---6-6-6-6-4-4-----|

G--------------------|
D--------------------|
A--------------------|x1
E---6-6-6-6-4-4-4-4--|

Bridge- 1:48
G--------------------------------8-6-5-6--|
D-------8-6-5---6-5--------8-6-5----------|
A---4/6-------4-----4-4/6-----------------|x2
E-----------------------------------------|

Chorus- 2:00
G-------------------|
D-------------------|
A---------------6-6-|x3
E---6-6-6-6-4-4-----|

G--------------------|
D--------------------|
A--------------------|x1
E---6-6-6-6-4-4-4-4--|


Post Chorus- 2:13
G-----8----8--6-5-----|
D-------6h8-8-----8-6-|
A---6-----------------|x4
E---------------------|

Verse- 2:33
G--------------------------------8-6-5-6--|
D-------8-6-5---6-5--------8-6-5----------|
A---4/6-------4-----4-4/6-----------------|x1
E-----------------------------------------|

G--------------------------------|
D-------8-6-5---6-5--------8-6-5-|
A---4/6-------4-----4-4/6--------|x1
E--------------------------------|

Pre Chorus- 2:45
G------------|
D------------|
A---44444444-|x2
E------------|

Chorus- 2:48
G-------------------|
D-------------------|
A---------------6-6-|x8
E---6-6-6-6-4-4-----|

G--------------------|
D--------------------|
A--------------------|x1
E---6-6-6-6-4-4-4-4--|

Outro- 3:14
G-----8----8--6-5-----|
D-------6h8-8-----8-6-|
A---6-----------------|x12(keeps on going and getting and getting quieter)
E---------------------|
--------------------------|
SYMBOLS- /=slide          |    
         h=hammer on      |
--------------------------|
Suggest correction
comments
print report bad tab
8 comments total. Showing first comments.
0 reply
Liam 1,995 Nov 27, 2005 09:09 PM

the reason why it is easier to play is because its wrong -even for normal tuning it is tabbed wrong! dont bother tabbing songs that already have perfect or near perfect tabs for! -its pointless! i tabbed a 100% correct version of Longview but it got rejected! -god the tab team must have been stoned when they accepted this one! shit tab -sorry but its crap

0 reply
BJC2590 30 Nov 28, 2005 08:22 AM

boooooooo

0 reply
Robo_Hobo 20 Nov 28, 2005 04:00 PM

wow uhm bad

guest
You may want to rate the tab now too:
select rating
Wanna post a correction for this tab? Suggest correction