Oops, an error
Loading. Please wait.

Longview Tab

version 7
20,299 views 45 this week
4 commentsread comments
1 2 3 4 5
excellent!
x 16
add to favorites
launch autoscroll
font size
0
reset
how to read this tab
guitar tuner
Autoscroll
slow
fast
+/-
esc
set tempo
stop
Help us to improve Ultimate-Guitar.com Take our survey!
×
Difficulty
Tuning
novice
D# G# C# F# A# D#
this an awesome song by green day.
hope you enjoy my tab.

tuning-half step down (Eb Ab Db Gb Bb Eb)

bass intro, then
Eb|-------------------------|
Bb|-------------------------|
Gb|-------------------------|
Db|-7-7-7-7-7-7-7-7-7-7-7-7-|
Ab|-5-5-5-5-5-5-5-5-5-5-5-5-|
Eb|-------------------------|

Eb|--------------------------------|
Bb|--------------------------------|
Gb|--------------------------------|
Db|-------------------------9-9-9--|x3
Ab|-9---9---9---9---7---7---7-7-7--|
Eb|-7-0-7-0-7-0-7-0-5-0-5-0--------|

Eb|-------------------------|
Bb|-------------------------|
Gb|-------------------------|
Db|-9--(9)--\---------------|
Ab|-7--(7)--\---------------|
Eb|-------------------------|

verse, no guitar.

Eb|-------------------------|
Bb|-------------------------|
Gb|-------------------------|
Db|-7-7-7-7-7-7-7-7-7-7-7-7-|
Ab|-5-5-5-5-5-5-5-5-5-5-5-5-|
Eb|-------------------------|

Eb|--------------------------------|
Bb|--------------------------------|
Gb|--------------------------------|
Db|-------------------------9-9-9--|x3
Ab|-9---9---9---9---7---7---7-7-7--|
Eb|-7-0-7-0-7-0-7-0-5-0-5-0--------|

Eb|---------------------------------|
Bb|---------------------------------|
Gb|---------------------------------|
Db|---------------------------------|
Ab|-9---9---9---9---7-7-7-7-7-7-7-7-|
Eb|-7-0-7-0-7-0-7-0-5-5-5-5-5-5-5-5-|

Eb|---------------------------------|
Bb|---------------------------------|
Gb|---------------------------------|
Db|-9-9-9-9-9-9-9-9-7-7-7-7-7-7-7-7-|x4
Ab|-7-7-7-7-7-7-7-7-5-5-5-5-5-5-5-5-|
Eb|---------------------------------|

Eb|--------------------------------|
Bb|--------------------------------|
Gb|--------------------------------|
Db|-------------------------9-9-9--|x3
Ab|-9---9---9---9---7---7---7-7-7--|
Eb|-7-0-7-0-7-0-7-0-5-0-5-0--------|

Eb|---------------------------------|
Bb|---------------------------------|
Gb|---------------------------------|
Db|---------------------------------|
Ab|-9---9---9---9---7-7-7-7-7-7-7-7-|
Eb|-7-0-7-0-7-0-7-0-5-5-5-5-5-5-5-5-|

Eb|----------------|
Bb|----------------|
Gb|----------------|
Db|-8/9---(9)-\----|
Ab|-6/7---(7)-\----|
Eb|----------------|

once again, no guitar.

Eb|-------------------------------------------------|
Bb|-------------------------------------------------|
Gb|-------------------------------------------------|
Db|-7-7-7-7-7-7-7-7-7-7-7-7-7-7-7-7-7-7-7-7-7-7-7-7-|
Ab|-5-5-5-5-5-5-5-5-5-5-5-5-5-5-5-5-5-5-5-5-5-5-5-5-|
Eb|-------------------------------------------------|

Eb|--------------------------------|
Bb|--------------------------------|
Gb|--------------------------------|
Db|-------------------------9-9-9--|x7
Ab|-9---9---9---9---7---7---7-7-7--|
Eb|-7-0-7-0-7-0-7-0-5-0-5-0--------|

Eb|---------------------------------|
Bb|---------------------------------|
Gb|---------------------------------|
Db|---------------------------------|
Ab|-9---9---9---9---7-7-7-7-7-7-7-7-|
Eb|-7-0-7-0-7-0-7-0-5-5-5-5-5-5-5-5-|

Eb|----------------|
Bb|-7/9--(9)-\-----|
Gb|-7/9--(9)-\-----|
Db|----------------|
Ab|----------------|
Eb|----------------|

Eb|-------------------------12--(12)-|
Bb|-9h10-9-7--(7)---9h10-12-12--(12)-|
Gb|-9----9-9--(9)---9-----9----------|
Db|----------------------------------|
Ab|----------------------------------|
Eb|----------------------------------|
(repeat, fade out)

/=slide up
\=slide down
h=hammer on
Suggest correction
comments
print report bad tab
4 comments total. Showing first comments.
0 reply
Tap597 40 wrote on October 6 2009, 10:37 pm

Perfect dude but i play it in standard which is one fret down, I dont feel like tuning it a half step. But this tab is perfect all the others suck.

0 reply
guitar-noob=P 41 wrote on December 22 2009, 08:43 am

perfect =]

0 reply
hoverboard_0 10 wrote on March 9 2010, 09:27 pm

Ok job, its not correctly like the way I play it, like for the rythm (the second bar tab thiny) instead of playing the 7

3 times, play it 6 fast. I submitted a that looks similar like urs (I didnt look at this till after)

but the way i play it sounds correct and a little easier. so i think you should change some parts

guest
You may want to rate the tab now too:
select rating
Wanna post a correction for this tab? Suggest correction