Oops, an error
Loading. Please wait.

Loss Of Control Bass Tab

version 1
version 1

Whole song

Interactive

1,226 views 3 this week
no commentswrite comment
1 2 3 4 5
accurate
x 4
add to favorites
launch autoscroll
font size
0
reset
guitar tuner
Autoscroll
slow
fast
+/-
esc
set tempo
stop
Help us to improve Ultimate-Guitar.com Take our survey!
×
Author
Difficulty
intermediate
-----------------------------------------------------------------------------
                           LOSS OF CONTROL - Green Day
-----------------------------------------------------------------------------
Tabbed by: TheNorwishHedge
E-mail: eirik.hemstad@hotmail.com

Tuning: Standard

INTRO:
G|----------------------------------------------------------------|
D|-----------------5~------------5-7~------------7-9--------------|
A|----------------------------------------------------------4-4-2-|
E|-0~------------0------------------------------------------------|

RIFF:
G|----------------------------------------------------------------|
D|----------------------------------------------------------------|
A|---------------------------------------------------------4-4-2--|
E|-5---5-5-5-5-5-5-5-5-5-5-5-4-4-2-0---0-0-0-0-0-0-0-0-0-0--------|x2

VERSE:
G|----------------------------------------------------------------|
D|----------------------------------------------------------------|
A|-----------------------------------7---7-7-7-7-7-7-7-7-7-7-7-7--|
E|-5---5-5-5-5-5-5-5-5-5-5-5-5-5-5-5------------------------------|x4

PRE-CHORUS
G|----------------------------------------------------------------|
D|-------------------------------5-0-2---2-2-2-2-2-2-2-2-2-2-2-2--|
A|----------------------------------------------------------------|
E|-0-0-2-3---3-3-3-3-3-3-3-3-3-3----------------------------------|

G|----------------------------------------------------------------|
D|-------------------------------5-0-2---2-2-2-2-2-2-2-2-2-0------|
A|-----------------------------------------------------------2-0--|
E|-0-0-2-3---3-3-3-3-3-3-3-3-3-3----------------------------------|

CHORUS:
G|----------------------------------------------------------------|
D|----------------------------------------------------------------|
A|-5-5-5-5-5-5-5-5-5-5-5-5-5-5-5-5-5-5-5-5-5-5-5-5-5-5-5-5-5-5-5--|
E|----------------------------------------------------------------|

G|----------------------------------------------------------------|
D|----------------------------------------------------------------|
A|-------5---------------5----------------------------------------|
E|-5---5-----5---0-5---5-----5---5-0------------------------------|

G|----------------------------------------------------------------|
D|----------------------------------------------------------------|
A|-5-5-5-5-5-5-5-5-5-5-5-5-5-5-5-5-5-5-5-5-5-5-5-5-5-5-5-5-5-5-5--|
E|----------------------------------------------------------------|

G|----------------------------------------------------------------|
D|----------------------------------------------------------------|
A|-7-7-7-7-7-7-7-7-7-7-7-7-7-7-7-7-7-7-7-7-7-7-7-7-7-7-7-7-4-4-2--|
E|----------------------------------------------------------------|

GUITAR SOLO:
G|----------------------------------------------------------------|
D|----------------------------------------------------------------|
A|---------------------------------------------------------4-4-2--|
E|-5---5-5-5-5-5-5-5-5-5-5-5-4-4-2-0---0-0-0-0-0-0-0-0-0-0--------|x3

G|----------------------------------------------------------------|
D|----------------------------------------------------------------|
A|----------------------------------------------------------------|
E|-5---5-5-5-5-5-5-5-5-5-5-5-4-4-2-0---0-0-0-0-0-0-0-0-0-0-0-0-0--|


ENDING:
G|----------------------------------------------------------------|
D|----------------------------------------------------------------|
A|---------------------------------------------------------4-4-2--|
E|-5---5-5-5-5-5-5-5-5-5-5-5-4-4-2-0---0-0-0-0-0-0-0-0-0-0--------|x2

G|----------------------------------------------------------------|
D|----------------------------------------------------------------|
A|-4---4---2------------------------------------------------------|
E|-----------5\---------------------------------------------------|

ORDER:
Intro
Riff
Verse
Pre-Chorus
Chorus
Riff
Verse
Pre-Chorus
Chorus
Guitar Solo
Pre-Chorus
Chorus
Ending

| /  slide up
| \  slide down
| h  hammer-on
| p  pull-off
| ~  vibrato
| +  harmonic
| x  Mute note
=============================================================================
Suggest correction
comments
print report bad tab
guest
You may want to rate the tab now too:
select rating
Wanna post a correction for this tab? Suggest correction