Oops, an error
Loading. Please wait.

Loss Of Control Tab

version 1
version 1

Whole song

Interactive

7,231 views 9 this week
2 commentsread comments
1 2 3 4 5
worth learning
x 8
add to favorites
launch autoscroll
font size
0
reset
how to read this tab
guitar tuner
Autoscroll
slow
fast
+/-
esc
set tempo
stop
Help us to improve Ultimate-Guitar.com Take our survey!
×
Author
Difficulty
advanced
Artist: Green Day
Album: ¡UNO!
Song: Loss Of Control
Instrument: Guitar
Submitter: GuitarPunk94

Feel free to rate + comment! Join the GreenDayCommunity(GDC) :-)

Standard Tuning



Key:
-  - Nothing
.  - Palm mute
~  - Let notes ring
4b - Bend string
h  - Hammer on
p  - Pull off
/ - Slide up or down



 Intro:
|------------|------------|------------|------------|
|------------|------------|------------|------------|
|-------642--|----642-----|------------|------------|
|-2~-2~-642-6|42--642-642-|------------|------------|
|-2~-2~-420-6|42--420-642-|------------|------------|
|-0~-0~-----4|20------420-|------------|------------|

 Verse 1:
|------------|------------|------------|------------|
|------9-----|9-9-9-109---|-9----------|------------|
|-6422-99-22-|9999999-9-22|-999-22-999-|------------|
|-6422-99-22-|9999999-9-22|-999-22-999-|------------|
|-4200-77-00-|7777777-7-00|-777-00-777-|------------|
|------------|------------|------------|------------|
     .  .  .   . . .     .   .   .  .

 Pre-Chorus:  Chorus:
|------------|------------|------------|------------|
|------------|------------|------------|------------|
|------------|-7--7---7--7|-9----------|------------|
|-245-2-245-2|-7-777-777-7|-9----------|------------|
|-245-2-245-2|-5-757-757-5|-7----------|------------|
|-023-0-023-0|---5-5-5-5--|-0----------|------------|

 Chorus:                    Verse 2:
|------------|-------------|------------|------------|
|-----2-2----|----2-2------|----9-9-9-99|----9-------|
|-642-4b424~-|642-4b424~---|-22-99999999|-22-999-22--|
|-642--------|642----------|-22-99999999|-22-999-22--|
|-420--------|420-------14\|-00-77777777|-00-777-00--|
|------------|-------------|------------|------------|
                              .  . . .     .  .   .

|------------|------------|------------|------------|
|-9-9-9-109--|------------|------------|------------|
|-9999999-9-2|2-999-------|------------|------------|
|-9999999-9-2|2-999-------|------------|------------|
|-7777777-7-0|0-777-------|------------|------------|
|------------|------------|------------|------------|
   . . .      .  .

 Pre-Chorus:  Chorus:
|------------|------------|------------|------------|
|------------|------------|------------|------------|
|------------|-7--7---7--7|-9----------|------------|
|-245-2-245-2|-7-777-777-7|-9----------|------------|
|-245-2-245-2|-5-757-757-5|-7----------|------------|
|-023-0-023-0|---5-5-5-5--|-0----------|------------|

 Solo:
|------------|------------|------------|------------|
|-----2-2----|--------2-2-|----17--17--|17----------|
|-642-4b424~4|421-642-4b42|4~14--14--14|------------|
|-642--------|----642-----|------------|------------|
|-420--------|----420-----|------------|------------|
|------------|------------|------------|------------|

|------------|-5--5-5-----|--5---------|----12-12-12---------|
|------------|5-5-5-5--7b7|5-5---------|----12-12-12---------|
|-5h7p5-5h-7b|----7b7b----|7b7b-14p12--|12h-14b~~-14---12----|
|------7-----|------------|----------14|-------------141414--|
|------------|------------|------------|---------------------|
|------------|------------|------------|---------------------|

                                 Pre-Chorus:
|55--55--5---|------------|------------|------------|
|55--55--5-8b|8b8b5-5-----|------------|------------|
|--7b--7b----|------7b-13-|14-16~------|--7---------|
|------------|---------14-|15-17~2-245-|2-7---------|
|------------|------------|------2-245-|2-5---------|
|------------|------------|------0-023-|0-----------|

 Chorus:
|------------|------------|------------|------------|
|------------|-----2-2----|----2-2-----|---22-------|
|--7---7--7-9|-642-4b424~-|642-4b424~44|44---42-----|
|-777-777-7-9|-642--------|642---------|------------|
|-757-757-5-7|-420--------|420---------|------------|
|-5-5-5-5---0|------------|------------|------------|
Suggest correction
What's this?
You can suggest a correction to this tab. Community and Mods will review your correction and vote to approve or reject it.
comments
print report bad tab
2 comments total.
0 reply
SimounZon 332 wrote on July 5 2014, 06:59 am

Lack of accuracy.

0 reply
welcho 16 wrote on July 25 2014, 01:01 pm

Lack of accuracy.

guest
You may want to rate the tab now too:
select rating
Please do not post tabs as comments. Select "correction" instead!