Oops, an error
Loading. Please wait.

Macys Day Parade Tab

version 3
version 3

Whole song

Interactive

54,007 views 24 this week
24 commentsread comments
1 2 3 4 5
x 38
add to favorites
launch autoscroll
font size
0
reset
how to read this tab
guitar tuner
×
Best way to learn
"Macys Day Parade"
Autoscroll
slow
fast
+/-
esc
set tempo
stop
Author
Ok heres the tab for Greendays 'Macys Day Parade' edited slightly from the
powertab version by Cacophonix so thanks for that,
But it should be played down half a step as a) Greenday tune to this and b)
its much easier to mute that E chord when you're
touching all the strings.

Seeya all later.

Tablature Legend
----------------
 h   - hammer-on
 p   - pull-off
 b   - bend
 pb  - pre-bend
 r   - bend release (if no number after the r, then release immediately)
 /\  - slide into or out of (from/to "nowhere")
 s   - legato slide
 S   - shift slide
<n> - natural harmonic
[n]  - artificial harmonic
n(n) - tapped harmonic
 ~   - vibrato
 tr  - trill
 T   - tap
 TP  - trem. picking
 PM  - palm muting
\n/  - tremolo bar dip; n = amount to dip
 \n  - tremolo bar down
 n/  - tremolo bar up
/n\  - tremolo bar inverted dip
 =   - hold bend; also acts as connecting device for hammers/pulls
 <> - volume swell (louder/softer)
 x   - on rhythm slash represents muted slash
 o   - on rhythm slash represents single note slash

All Guitars Down A Step - Eb Ab Db Gb Bb Eb

Intro                                 Verse

Gtr I
|-----------------|-----------------||------------------|
|-5-5-x-5-5-5-x-5-|-5-5-x-5-5-5-x-5-||o-5-5-x-5-5-5-x-5-|
|-5-5-x-5-5-5-x-5-|-5-5-x-5-5-5-x-5-||--5-5-x-5-5-5-x-5-|
|-5-5-x-5-5-5-x-5-|-5-5-x-5-5-5-x-5-||--5-5-x-5-5-5-x-5-|
|-3-3-x-3-3-3-x-3-|-3-3-x-3-3-3-x-3-||o-3-3-x-3-3-3-x-3-|
|-----------------|-----------------||------------------|


                    G#m
|-----------------|-5-5-x-5-5-5-x-5-|-5-5-x-5-5-5-x-5-|
|-5-5-x-5-5-5-x-5-|-5-5-x-5-5-5-x-5-|-5-5-x-5-5-5-x-5-|
|-5-5-x-5-5-5-x-5-|-5-5-x-5-5-5-x-5-|-5-5-x-5-5-5-x-5-|
|-5-5-x-5-5-5-x-5-|-7-7-x-7-7-7-x-7-|-7-7-x-7-7-7-x-7-|
|-3-3-x-3-3-3-x-3-|-7-7-x-7-7-7-x-7-|-7-7-x-7-7-7-x-7-|
|-----------------|-5-5-x-5-5-5-x-5-|-5-5-x-5-5-5-x-5-|


  E                 F#                B
|-1-1-x-1-1-1-x-1-|-3-3-x-3-3-3-x-3-|-----------------|
|-1-1-x-1-1-1-x-1-|-3-3-x-3-3-3-x-3-|-5-5-x-5-5-5-x-5-|
|-2-2-x-2-2-2-x-2-|-4-4-x-4-4-4-x-4-|-5-5-x-5-5-5-x-5-|
|-3-3-x-3-3-3-x-3-|-5-5-x-5-5-5-x-5-|-5-5-x-5-5-5-x-5-|
|-3-3-x-3-3-3-x-3-|-5-5-x-5-5-5-x-5-|-3-3-x-3-3-3-x-3-|
|-1-1-x-1-1-1-x-1-|-3-3-x-3-3-3-x-3-|-----------------|


|-----------------|-----------------|-----------------|
|-5-5-x-5-5-5-x-5-|-5-5-x-5-5-5-x-5-|-5-5-x-5-5-5-x-5-|
|-5-5-x-5-5-5-x-5-|-5-5-x-5-5-5-x-5-|-5-5-x-5-5-5-x-5-|
|-5-5-x-5-5-5-x-5-|-5-5-x-5-5-5-x-5-|-5-5-x-5-5-5-x-5-|
|-3-3-x-3-3-3-x-3-|-3-3-x-3-3-3-x-3-|-3-3-x-3-3-3-x-3-|
|-----------------|-----------------|-----------------|


  G#m                                 E
|-5-5-x-5-5-5-x-5-|-5-5-x-5-5-5-x-5-|-1-1-x-1-1-1-x-1-|
|-5-5-x-5-5-5-x-5-|-5-5-x-5-5-5-x-5-|-1-1-x-1-1-1-x-1-|
|-5-5-x-5-5-5-x-5-|-5-5-x-5-5-5-x-5-|-2-2-x-2-2-2-x-2-|
|-7-7-x-7-7-7-x-7-|-7-7-x-7-7-7-x-7-|-3-3-x-3-3-3-x-3-|
|-7-7-x-7-7-7-x-7-|-7-7-x-7-7-7-x-7-|-3-3-x-3-3-3-x-3-|
|-5-5-x-5-5-5-x-5-|-5-5-x-5-5-5-x-5-|-1-1-x-1-1-1-x-1-|


  F#                B
|-3-3-x-3-3-3-x-3-|-----------------|-----------------||
|-3-3-x-3-3-3-x-3-|-5-5-x-5-5-5-x-5-|-5-5-x-5-5-5-x-5-||
|-4-4-x-4-4-4-x-4-|-5-5-x-5-5-5-x-5-|-5-5-x-5-5-5-x-5-||
|-5-5-x-5-5-5-x-5-|-5-5-x-5-5-5-x-5-|-5-5-x-5-5-5-x-5-||
|-5-5-x-5-5-5-x-5-|-3-3-x-3-3-3-x-3-|-3-3-x-3-3-3-x-3-||
|-3-3-x-3-3-3-x-3-|-----------------|-----------------||


Pre-Chorus
  E                                   F#
|-1-1-x-1-1-1-x-1-|-1-1-x-1-1-1-x-1-|-3-3-x-3-3-3-x-3-|
|-1-1-x-1-1-1-x-1-|-1-1-x-1-1-1-x-1-|-3-3-x-3-3-3-x-3-|
|-2-2-x-2-2-2-x-2-|-2-2-x-2-2-2-x-2-|-4-4-x-4-4-4-x-4-|
|-3-3-x-3-3-3-x-3-|-3-3-x-3-3-3-x-3-|-5-5-x-5-5-5-x-5-|
|-3-3-x-3-3-3-x-3-|-3-3-x-3-3-3-x-3-|-5-5-x-5-5-5-x-5-|
|-1-1-x-1-1-1-x-1-|-1-1-x-1-1-1-x-1-|-3-3-x-3-3-3-x-3-|


                    E
|-3-3-x-3-3-3-x-3-|-1-1-x-1-1-1-x-1-|-1-1-x-1-1-1-x-1-|
|-3-3-x-3-3-3-x-3-|-1-1-x-1-1-1-x-1-|-1-1-x-1-1-1-x-1-|
|-4-4-x-4-4-4-x-4-|-2-2-x-2-2-2-x-2-|-2-2-x-2-2-2-x-2-|
|-5-5-x-5-5-5-x-5-|-3-3-x-3-3-3-x-3-|-3-3-x-3-3-3-x-3-|
|-5-5-x-5-5-5-x-5-|-3-3-x-3-3-3-x-3-|-3-3-x-3-3-3-x-3-|
|-3-3-x-3-3-3-x-3-|-1-1-x-1-1-1-x-1-|-1-1-x-1-1-1-x-1-|


  F#                                  B
|-3-3-x-3-3-3-x-3-|-3-3-x-3-3-3-x-3-|-----------------|------------------||
|-3-3-x-3-3-3-x-3-|-3-3-x-3-3-3-x-3-|-5-5-x-5-5-5-x-5-|-5-5-x-5-5-5-x-5-o||
|-4-4-x-4-4-4-x-4-|-4-4-x-4-4-4-x-4-|-5-5-x-5-5-5-x-5-|-5-5-x-5-5-5-x-5--||
|-5-5-x-5-5-5-x-5-|-5-5-x-5-5-5-x-5-|-5-5-x-5-5-5-x-5-|-5-5-x-5-5-5-x-5--||
|-5-5-x-5-5-5-x-5-|-5-5-x-5-5-5-x-5-|-3-3-x-3-3-3-x-3-|-3-3-x-3-3-3-x-3-o||
|-3-3-x-3-3-3-x-3-|-3-3-x-3-3-3-x-3-|-----------------|------------------||


Pre-Chorus
  E                                       F#
|-1-1-x-1--1--1-x-1-|-1-1-x-1--1--1-x-1-|-3-3-x-3--3--3-x-3-|
|-1-1-x-1--1--1-x-1-|-1-1-x-1--1--1-x-1-|-3-3-x-3--3--3-x-3-|
|-2-2-x-2--2--2-x-2-|-2-2-x-2--2--2-x-2-|-4-4-x-4--4--4-x-4-|
|-3-3-x-3--3--3-x-3-|-3-3-x-3--3--3-x-3-|-5-5-x-5--5--5-x-5-|
|-3-3-x-3--3--3-x-3-|-3-3-x-3--3--3-x-3-|-5-5-x-5--5--5-x-5-|
|-1-1-x-1--1--1-x-1-|-1-1-x-1--1--1-x-1-|-3-3-x-3--3--3-x-3-|
|
| Gtr II
|-------8-(8)-------|-------8-(8)-------|-------7-(7)-------|
|-8-8---------8---8-|-8-8---------8---8-|-8-8---------8---8-|
|-------------------|-------------------|-------------------|
|-------------------|-------------------|-------------------|
|-------------------|-------------------|-------------------|
|-------------------|-------------------|-------------------|


                      Chorus
                       B       F#/A#     G#m     F#
|-3-3-x-3--3--3-x-3-||-----------------|-5-5-x-5-3-3-x-3-|
|-3-3-x-3--3--3-x-3-||-5-5-x-5-8-8-x-8-|-5-5-x-5-3-3-x-3-|
|-4-4-x-4--4--4-x-4-||-5-5-x-5-7-7-x-7-|-5-5-x-5-4-4-x-4-|
|-5-5-x-5--5--5-x-5-||-5-5-x-5-5-5-x-5-|-7-7-x-7-5-5-x-5-|
|-5-5-x-5--5--5-x-5-||-3-3-x-3---------|-7-7-x-7-5-5-x-5-|
|-3-3-x-3--3--3-x-3-||---------7-7-x-7-|-5-5-x-5-3-3-x-3-|
|
|-------7-(7)-------||-8---------------|-----------------|
|-8-8---------8---8-||-----------------|-----------------|
|-------------------||-----------------|-----------------|
|-------------------||-----------------|-----------------|
|-------------------||-----------------|-----------------|
|-------------------||-----------------|-----------------|


  E                 F#                B
|-1-1-x-1-1-1-x-1-|-3-3-x-3-3-3-x-3-|-----------------|-----------------|
|-1-1-x-1-1-1-x-1-|-3-3-x-3-3-3-x-3-|-5-5-x-5-5-5-x-5-|-5-5-x-5-5-5-x-5-|
|-2-2-x-2-2-2-x-2-|-4-4-x-4-4-4-x-4-|-5-5-x-5-5-5-x-5-|-5-5-x-5-5-5-x-5-|
|-3-3-x-3-3-3-x-3-|-5-5-x-5-5-5-x-5-|-5-5-x-5-5-5-x-5-|-5-5-x-5-5-5-x-5-|
|-3-3-x-3-3-3-x-3-|-5-5-x-5-5-5-x-5-|-3-3-x-3-3-3-x-3-|-3-3-x-3-3-3-x-3-|
|-1-1-x-1-1-1-x-1-|-3-3-x-3-3-3-x-3-|-----------------|-----------------|


 Verse
  Gtr I
|-------------------|-------------------|
|-5-5--x-5-5-5--x-5-|-5-5--x-5-5-5--x-5-|
|-5-5--x-5-5-5--x-5-|-5-5--x-5-5-5--x-5-|
|-5-5--x-5-5-5--x-5-|-5-5--x-5-5-5--x-5-|
|-3-3--x-3-3-3--x-3-|-3-3--x-3-3-3--x-3-|
|-------------------|-------------------|
|
| Gtr III
|-------------------|-------------------|
|-----13-------13---|-----13-------13---|
|-----12-------12---|-----12-------12---|
|-------------------|-------------------|
|-------------------|-------------------|
|-------------------|-------------------|


  G#m
|-5-5--x-5-5-5--x-5-|-5-5--x-5-5-5--x-5-|
|-5-5--x-5-5-5--x-5-|-5-5--x-5-5-5--x-5-|
|-5-5--x-5-5-5--x-5-|-5-5--x-5-5-5--x-5-|
|-7-7--x-7-7-7--x-7-|-7-7--x-7-7-7--x-7-|
|-7-7--x-7-7-7--x-7-|-7-7--x-7-7-7--x-7-|
|-5-5--x-5-5-5--x-5-|-5-5--x-5-5-5--x-5-|
|
|-------------------|-------------------|
|-----13-------13---|-----13-------13---|
|-----12-------12---|-----12-------12---|
|-------------------|-------------------|
|-------------------|-------------------|
|-------------------|-------------------|


  E                   F#                  B
|-1-1--x-1-1-1--x-1-|-3-3--x-3-3-3--x-3-|-------------------|
|-1-1--x-1-1-1--x-1-|-3-3--x-3-3-3--x-3-|-5-5--x-5-5-5--x-5-|
|-2-2--x-2-2-2--x-2-|-4-4--x-4-4-4--x-4-|-5-5--x-5-5-5--x-5-|
|-3-3--x-3-3-3--x-3-|-5-5--x-5-5-5--x-5-|-5-5--x-5-5-5--x-5-|
|-3-3--x-3-3-3--x-3-|-5-5--x-5-5-5--x-5-|-3-3--x-3-3-3--x-3-|
|-1-1--x-1-1-1--x-1-|-3-3--x-3-3-3--x-3-|-------------------|
|
|-------------------|-------------------|-------------------|
|-----13-------13---|-----13-------13---|-----13-------13---|
|-----12-------12---|-----12-------12---|-----12-------12---|
|-------------------|-------------------|-------------------|
|-------------------|-------------------|-------------------|
|-------------------|-------------------|-------------------|


|-------------------|-------------------|-------------------|
|-5-5--x-5-5-5--x-5-|-5-5--x-5-5-5--x-5-|-5-5--x-5-5-5--x-5-|
|-5-5--x-5-5-5--x-5-|-5-5--x-5-5-5--x-5-|-5-5--x-5-5-5--x-5-|
|-5-5--x-5-5-5--x-5-|-5-5--x-5-5-5--x-5-|-5-5--x-5-5-5--x-5-|
|-3-3--x-3-3-3--x-3-|-3-3--x-3-3-3--x-3-|-3-3--x-3-3-3--x-3-|
|-------------------|-------------------|-------------------|
|
|-------------------|-------------------|-------------------|
|-----13-------13---|-----13-------13---|-----13-------13---|
|-----12-------12---|-----12-------12---|-----12-------12---|
|-------------------|-------------------|-------------------|
|-------------------|-------------------|-------------------|
|-------------------|-------------------|-------------------|


  G#m                                     E
|-5-5--x-5-5-5--x-5-|-5-5--x-5-5-5--x-5-|-1-1--x-1-1-1--x-1-|
|-5-5--x-5-5-5--x-5-|-5-5--x-5-5-5--x-5-|-1-1--x-1-1-1--x-1-|
|-5-5--x-5-5-5--x-5-|-5-5--x-5-5-5--x-5-|-2-2--x-2-2-2--x-2-|
|-7-7--x-7-7-7--x-7-|-7-7--x-7-7-7--x-7-|-3-3--x-3-3-3--x-3-|
|-7-7--x-7-7-7--x-7-|-7-7--x-7-7-7--x-7-|-3-3--x-3-3-3--x-3-|
|-5-5--x-5-5-5--x-5-|-5-5--x-5-5-5--x-5-|-1-1--x-1-1-1--x-1-|
|
|-------------------|-------------------|-------------------|
|-----13-------13---|-----13-------13---|-----13-------13---|
|-----12-------12---|-----12-------12---|-----12-------12---|
|-------------------|-------------------|-------------------|
|-------------------|-------------------|-------------------|
|-------------------|-------------------|-------------------|


  F#                  B
|-3-3--x-3-3-3--x-3-|-------------------|-------------------||
|-3-3--x-3-3-3--x-3-|-5-5--x-5-5-5--x-5-|-5-5--x-5-5-5--x-5-||
|-4-4--x-4-4-4--x-4-|-5-5--x-5-5-5--x-5-|-5-5--x-5-5-5--x-5-||
|-5-5--x-5-5-5--x-5-|-5-5--x-5-5-5--x-5-|-5-5--x-5-5-5--x-5-||
|-5-5--x-5-5-5--x-5-|-3-3--x-3-3-3--x-3-|-3-3--x-3-3-3--x-3-||
|-3-3--x-3-3-3--x-3-|-------------------|-------------------||
|
|-------------------|-------------------|-------------------||
|-----13-------13---|-----13-------13---|-----13-------13---||
|-----12-------12---|-----12-------12---|-----12-------12---||
|-------------------|-------------------|-------------------||
|-------------------|-------------------|-------------------||
|-------------------|-------------------|-------------------||


 Pre-Chorus
  E                                   F#
|-1-1-x-1-1-1-x-1-|-1-1-x-1-1-1-x-1-|-3-3-x-3-3-3-x-3-|
|-1-1-x-1-1-1-x-1-|-1-1-x-1-1-1-x-1-|-3-3-x-3-3-3-x-3-|
|-2-2-x-2-2-2-x-2-|-2-2-x-2-2-2-x-2-|-4-4-x-4-4-4-x-4-|
|-3-3-x-3-3-3-x-3-|-3-3-x-3-3-3-x-3-|-5-5-x-5-5-5-x-5-|
|-3-3-x-3-3-3-x-3-|-3-3-x-3-3-3-x-3-|-5-5-x-5-5-5-x-5-|
|-1-1-x-1-1-1-x-1-|-1-1-x-1-1-1-x-1-|-3-3-x-3-3-3-x-3-|


                    E
|-3-3-x-3-3-3-x-3-|-1-1-x-1-1-1-x-1-|-1-1-x-1-1-1-x-1-|
|-3-3-x-3-3-3-x-3-|-1-1-x-1-1-1-x-1-|-1-1-x-1-1-1-x-1-|
|-4-4-x-4-4-4-x-4-|-2-2-x-2-2-2-x-2-|-2-2-x-2-2-2-x-2-|
|-5-5-x-5-5-5-x-5-|-3-3-x-3-3-3-x-3-|-3-3-x-3-3-3-x-3-|
|-5-5-x-5-5-5-x-5-|-3-3-x-3-3-3-x-3-|-3-3-x-3-3-3-x-3-|
|-3-3-x-3-3-3-x-3-|-1-1-x-1-1-1-x-1-|-1-1-x-1-1-1-x-1-|


                                      Out-Chorus
  F#                                   B       F#/A#
|-3-3-x-3-3-3-x-3-|-3-3-x-3-3-3-x-3-||-----------------|
|-3-3-x-3-3-3-x-3-|-3-3-x-3-3-3-x-3-||-5-5-x-5-8-8-x-8-|
|-4-4-x-4-4-4-x-4-|-4-4-x-4-4-4-x-4-||-5-5-x-5-7-7-x-7-|
|-5-5-x-5-5-5-x-5-|-5-5-x-5-5-5-x-5-||-5-5-x-5-5-5-x-5-|
|-5-5-x-5-5-5-x-5-|-5-5-x-5-5-5-x-5-||-3-3-x-3---------|
|-3-3-x-3-3-3-x-3-|-3-3-x-3-3-3-x-3-||---------7-7-x-7-|


  G#m     F#        E                 F#
|-5-5-x-5-3-3-x-3-|-1-1-x-1-1-1-x-1-|-3-3-x-3-3-3-x-3-|
|-5-5-x-5-3-3-x-3-|-1-1-x-1-1-1-x-1-|-3-3-x-3-3-3-x-3-|
|-5-5-x-5-4-4-x-4-|-2-2-x-2-2-2-x-2-|-4-4-x-4-4-4-x-4-|
|-7-7-x-7-5-5-x-5-|-3-3-x-3-3-3-x-3-|-5-5-x-5-5-5-x-5-|
|-7-7-x-7-5-5-x-5-|-3-3-x-3-3-3-x-3-|-5-5-x-5-5-5-x-5-|
|-5-5-x-5-3-3-x-3-|-1-1-x-1-1-1-x-1-|-3-3-x-3-3-3-x-3-|


  B       F#/A#     G#m     F#        E
|-----------------|-5-5-x-5-3-3-x-3-|-1-1-x-1-1-1-x-1-|
|-5-5-x-5-8-8-x-8-|-5-5-x-5-3-3-x-3-|-1-1-x-1-1-1-x-1-|
|-5-5-x-5-7-7-x-7-|-5-5-x-5-4-4-x-4-|-2-2-x-2-2-2-x-2-|
|-5-5-x-5-5-5-x-5-|-7-7-x-7-5-5-x-5-|-3-3-x-3-3-3-x-3-|
|-3-3-x-3---------|-7-7-x-7-5-5-x-5-|-3-3-x-3-3-3-x-3-|
|---------7-7-x-7-|-5-5-x-5-3-3-x-3-|-1-1-x-1-1-1-x-1-|


  F#                B       F#/A#     G#m     F#
|-3-3-x-3-3-3-x-3-|-----------------|-5-5-x-5-3-3-x-3-|
|-3-3-x-3-3-3-x-3-|-5-5-x-5-8-8-x-8-|-5-5-x-5-3-3-x-3-|
|-4-4-x-4-4-4-x-4-|-5-5-x-5-7-7-x-7-|-5-5-x-5-4-4-x-4-|
|-5-5-x-5-5-5-x-5-|-5-5-x-5-5-5-x-5-|-7-7-x-7-5-5-x-5-|
|-5-5-x-5-5-5-x-5-|-3-3-x-3---------|-7-7-x-7-5-5-x-5-|
|-3-3-x-3-3-3-x-3-|---------7-7-x-7-|-5-5-x-5-3-3-x-3-|


  E                 F#                B
|-1-1-x-1-1-1-x-1-|-3-3-x-3-3-3-x-3-|-----------------|
|-1-1-x-1-1-1-x-1-|-3-3-x-3-3-3-x-3-|-5-5-x-5-5-5-x-5-|
|-2-2-x-2-2-2-x-2-|-4-4-x-4-4-4-x-4-|-5-5-x-5-5-5-x-5-|
|-3-3-x-3-3-3-x-3-|-5-5-x-5-5-5-x-5-|-5-5-x-5-5-5-x-5-|
|-3-3-x-3-3-3-x-3-|-5-5-x-5-5-5-x-5-|-3-3-x-3-3-3-x-3-|
|-1-1-x-1-1-1-x-1-|-3-3-x-3-3-3-x-3-|-----------------|


|-----------------|-----------------|-----------------|------*|
|-5-5-x-5-5-5-x-5-|-5-5-x-5-5-5-x-5-|-5-5-x-5-5-5-x-5-|-5----*|
|-5-5-x-5-5-5-x-5-|-5-5-x-5-5-5-x-5-|-5-5-x-5-5-5-x-5-|-5----*|
|-5-5-x-5-5-5-x-5-|-5-5-x-5-5-5-x-5-|-5-5-x-5-5-5-x-5-|-5----*|
|-3-3-x-3-3-3-x-3-|-3-3-x-3-3-3-x-3-|-3-3-x-3-3-3-x-3-|-3----*|
|-----------------|-----------------|-----------------|------*|
Suggest correction
comments
print report bad tab
24 comments total. Showing first comments.
0 reply
Murdocs_Mayhem 10 Mar 07, 2004 07:00 PM

awesome tabs thanx alot

0 reply
westone freak 902 Aug 20, 2004 08:00 PM

brill tab!! *thums up*

0 reply
linkinguitaro 30 Nov 01, 2004 07:00 PM

it hurts my eyes ut it looks good

guest
You may want to rate the tab now too:
select rating
Wanna post a correction for this tab? Suggest correction