Oops, an error
Loading. Please wait.

Macys Day Parade Bass Tab

version 4
version 4

Whole song

Interactive

4,372 views 9 this week
no commentswrite comment
1 2 3 4 5
excellent!
x 6
add to favorites
launch autoscroll
font size
0
reset
guitar tuner
Autoscroll
slow
fast
+/-
esc
set tempo
stop
Help us to improve Ultimate-Guitar.com Take our survey!
×
Contributor
Difficulty
novice
start when he ends with saying call

------------------------------------------------------------------|
----------------------------------------4-6-6---------------------|
2-2--2-2-2--2-2-2--2-2-2--2-2-2--2-2-2----------------------------|
----------------------------------------------4-4-4--4-4-4--4-4-4-|

---------------------------------------------------------------------|
--2-2----2-2--2-4-4--4-4-4--------------------------------2-2--2-2-2-|
2------2--------------------2-2-2--2-2-2--2-2-2--2-2-2--2------------|
---------------------------------------------------------------------|

---------------------------------------------------------------------------|
2-2-2-2-4-4--4-4-4--4-4-4--4-4-4--4-2-2--2-2-2--2-2-2--2-2-2--2-4-4--4-4-4-|
---------------------------------------------------------------------------|
---------------------------------------------------------------------------|

----------------------------------------------------------------------------|
4-4-4--4-4-4----------------------------------------------------------4-6-6-|
--------------2-2-2--2-2-2--2-2-2--2-2-2--2-2-2--2-2-2--2-2-2--2-2-2--------|
----------------------------------------------------------------------------|

---------------------------------------------------------------------------|
----------------------2-2----2-2--2-4-4--4-4-4-----------------------------|
--------------------2------2--------------------2-2-2--2-2-2--2-2-2--2-2-2-|
4-4-4--4-4-4--4-4-4--------------------------------------------------------|

----------------------------------------------------------------------------|
----------------------------4-6-6-------------------------2-2----2-2--2-4-4-|
2-2-2--2-2-2--2-2-2--2-2-2------------------------------2------2------------|
-----------------------------------4-4-4--4-4-4--4-4-4----------------------|

---------------------------------------------------------------------|
4-4-4--------------------------------2-2--2-2-2--2-2-2--2-2-2--2-4-4-|
-------2-2-2--2-2-2--2-2-2--2-2-2--2---------------------------------|
---------------------------------------------------------------------|

-----------------------------------------------------------------------|
4-4-4--4-4-4--4-4H6-9---9---8H9-8---6---6---4H6-4---2-------2-2----4-4-|
----------------------------------------------------------2------2-----|
-----------------------------------------------------------------------|

-----------------------------------------------------------------|
--4-4-4-1----------------------2---1---2-2--2-2-2--2-2-2--2-2-2--|
2---------2-2--2-2-2--2-2-2--2---2-------------------------------|
-----------------------------------------------------------------|

----------------------------------------------------------------------------|
4-6-6-------------------------2-2----2-2--2-4-4--4-4-4----------------------|
----------------------------2------2--------------------2-2-2--2-2-2--2-2-2-|
-------4-4-4--4-4-4--4-4-4--------------------------------------------------|

----------------------------------------------------------------------------|
-----------------------------------4-6-6-------------------------2-2----2-2-|
2-2-2--2-2-2--2-2-2--2-2-2--2-2-2------------------------------2------2-----|
------------------------------------------4-4-4--4-4-4--4-4-4---------------|

---------------------------------------------------------------------|
2-4-4--4-4-4---------------------------------------------------------|
--------------2-2-2--2-2-2--2-2-2--2-2-2--2-2-2--2-2-2--2-2-2--2-2-2-|
---------------------------------------------------------------------|

---------------------------------------------------------------------|
4-6-6-------------------------2-2----2-2--2-4-4--4-4-4----2-2--------|
----------------------------2------2--------------------2------2-2-2-|
-------4-4-4--4-4-4--4-4-4-------------------------------------------|

---------------------------------------------------------------------|
----------------2-2--2-2-2--2-2-2--2-2-2--2-4-4--4-4-4--4-4-4--4-4-4-|
2-2-2--2-2-2--2------------------------------------------------------|
---------------------------------------------------------------------|

---------------------------------------------------------|
4-2-2--2-2-2--2-2-2--2-2-2--2-4-4--4-4-4--4-4-4--4-4H6---|
---------------------------------------------------------|
---------------------------------------------------------|

------------------------------------------------------------|
9---9---8H9-8---6---6---4H6-4-2-2-------2-2----4-4--4-4H6-4-|
--------------------------------------2------2--------------|
------------------------------------------------------------|

------------------------------------------------------------|
9---9---8H9-8---6---6---4H6-4-2-2-------2-2----4-4--4-4H6-4-|
--------------------------------------2------2--------------|
------------------------------------------------------------|

------------------------------------------------------------|
9---9---8H9-8---6---6---4H6-4-2-2-------2-2----4-4--4-4H6-4-|
--------------------------------------2------2--------------|
------------------------------------------------------------|

------------------------------------------------------------|
9---9---8H9-8---6---6---4H6-4-2-2-------2-2----4-4--4-4H6-4-|
--------------------------------------2------2--------------|
------------------------------------------------------------|

---------------------------------------------------------------|
---------------------2---1-------------------------------------|
2-2--2-2-2--2-2-2--2---2-----2-2--2-2-2--2-2-2--2-2-2-2-2-2~---|
---------------------------------------------------------------|
comments
print report bad tab
I want to post or [tab]
guest
You may want to rate the tab now too:
select rating
Please do not post tabs as comments. Select "correction" instead!