Oops, an error
Loading. Please wait.

Macys Day Parade Bass Tab

version 5
version 5

Whole song

Interactive

2,108 views 1 this week
1 commentread comment
1 2 3 4 5
please rate
add to favorites
launch autoscroll
font size
0
reset
guitar tuner
Tab Pro tools
  • play this tab
  • loop segment
  • change instrument
  • show fretboard
  • metronome
×
Best way to learn
"Macys Day Parade"
Autoscroll
slow
fast
+/-
esc
set tempo
stop
Contributor
ARTIST: Green Day
SONG: Macy Day's Parade
ALBUM: Warning (2000)
BASSIST: Mike Dirnt
-----------------------------------------|
-----------------------------------------|
Okay, this is how I play it with my band.
I believe it to be 100% accurate.
Standard tuning; half step down if wished.
Timing is as displayed, with correct
intervals between notes.
-----------------------------------------|
-----------------------------------------|

Verse x1:

G|-----------------------------------------------------|
D|-----------------------------------------------------|
A|-----------------------------------------------------|
E|-7-7--7-7-7--7-7-7--7-7-7--7-4-4--4-4-4--4-4-4--4-4-4|

G|----------------------------------------------------------|
D|----------------------------------------------------------|
A|----------------------------------------------------------|
E|-4-0-0--0-0-0--0-2-2--2-2-2--2-7-7--7-7-7--7-7-7--7-7-7--7|

Pre-Chorus 1 x2:

G|--------------------------------------------------------|
D|--------------------------------------------------------|
A|-7-7--7-7-7--7-7-7--7-7-7--7-9-9--9-9-9--9-9-9--9-9-9--9|
E|--------------------------------------------------------|

Break x1 :

G|----------------------------|
D|----------------------------|
A|----------------------------|
E|-7-7--7-7-7--7-7-7--7-7-7--7|

Verse x2

Pre-Chorus 2 x1 (The last four notes are low in the mix, so
                 listen close for them):

G|------------------------------------------------------------|
D|--------------------------------------------------------76--|
A|-7-7--7-7-7--7-7-7--7-7-7--7-9-9--9-9-9--9-9-9--9-9-9--9--76|
E|------------------------------------------------------------|

Chorus x1:

G|-------------------------------------------------------|
D|-------------------------------------------------------|
A|-------------------------------------------------------|
E|-7-7--7-6-7-6--4-4--4-2-4-2--0-0--0-0-0--0-2-2--2-1-2-1|

Post-Chorus x1:

G|----------------------------|
D|----------------------------|
A|----------------------9-7-6b|
E|-7-7--7-7-7--7-7-7--7-------|

Verse x2

Pre-Chorus 1 x1

Pre-Chorus 2 x1

Chorus x3

Post-Chorus x1

Ending x1 (The first measure is how it is on the album; 
           the second is how I like to play it):

G|--------------------------------------|
D|--------------------------------------|
A|--------------------------------------|
E|-7-7--7-7-7--7-7-7--7-7-7-7-7-7-7~~~~~|

G|------------------------------------|
D|------------------------------------|
A|----------------------9-7-6b--------|
E|-7-7--7-7-7--7-7-7--7---------7~~~~~|

-----------------------------------------|
-----------------------------------------|
| /  slide up
| \  slide down
| h  hammer-on
| b  bend note
| p  pull-off
| ~  let ring
| +  harmonic
| x  mute note
| s  slap note
comments
We did not receive enough feedback on this tab! Please rate:
print report bad tab
1 2 3 4 5
1 comment total.
0 reply
jatinkumar0076 wrote on November 2 2015, 12:07 pm

Well seems like you've missed some notes! :p

I want to post or [tab]
guest
You may want to rate the tab now too:
select rating
Please do not post tabs as comments. Select "correction" instead!