Oops, an error
Loading. Please wait.

Makeout Party Bass Tab

version 1
version 1

Whole song

8,059 views 12 this week
2 commentsread comments
1 2 3 4 5
accurate
x 6
add to favorites
launch autoscroll
font size
0
reset
guitar tuner
Tab Pro tools
  • play this tab
  • loop segment
  • change instrument
  • show fretboard
  • metronome
×
Best way to learn
"Makeout Party"
Autoscroll
slow
fast
+/-
esc
set tempo
stop
Contributor
-------------------------------------------------------------------------------
                             MAKEOUT  PARTY - Green Day
-------------------------------------------------------------------------------
Tabbed by: pkgk24
E-mail: pkgk240094@gmail.com

Tuning:     Standard (EADG)


Rest 2 measures: 
Intro:
G|------------------------------------------------------------------|
D|------------------------------------------------------------------|
A|---------3------------3-------------------------------------------|
E|---5-3-5---5-3--5-3-5---5-3--5\-----------------------------------|


Verse:
G|--------------------------------------------------------------------|
D|--------------------------------------------------------------------|
A|---------3----------------3----------------3----------------3-------|
E|---5-3-5---5-3--5\--5-3-5---5-3--5\--5-3-5---5-3--5\--5-3-5---5-3---|


Pre-Chorus/Chorus
G|-----------------------------------------------------------|
D|-----------------------------------------------------------|
A|---5-5-5-55555--5-5-5-55555--------3------------3----------|
E|-----------------------------5-3-5---5-3--5-3-5---5-3------|

G|------------------------------|
D|------------------------------|
A|---7-7-7-77777--5-5-5-55555---|
E|------------------------------|

G|-----------------------------------------------------------------|
D|-----------------------------------------------------------------|
A|---------3------------3-----------------3------------3-----------|
E|---5-3-5---5-3--5-3-5---5-3--5\---5-3-5---5-3--5-3-5---5-3--5\---|


Verse:
G|--------------------------------------------------------------------|
D|--------------------------------------------------------------------|
A|---------3----------------3----------------3----------------3-------|
E|---5-3-5---5-3--5\--5-3-5---5-3--5\--5-3-5---5-3--5\--5-3-5---5-3---|


Pre-Chorus/Chorus
G|-----------------------------------------------------------|
D|-----------------------------------------------------------|
A|---5-5-5-55555--5-5-5-55555--------3------------3----------|
E|-----------------------------5-3-5---5-3--5-3-5---5-3------|

G|------------------------------|
D|------------------------------|
A|---7-7-7-77777--5-5-5-55555---|
E|------------------------------|

G|-----------------------------------------------------------------|
D|-----------------------------------------------------------------|
A|---------3------------3-----------------3------------3-----------|
E|---5-3-5---5-3--5-3-5---5-3--5\---5-3-5---5-3--5-3-5---5-3--5\---|


Guitar solo:
G|--------------------------------------------------------------------|
D|--------------------------------------------------------------------|
A|---------3----------------3----------------3----------------3-------|
E|---5-3-5---5-3--5\--5-3-5---5-3--5\--5-3-5---5-3--5\--5-3-5---5-3---|

G|-----------------------------------------------------------|
D|-----------------------------------------------------------|
A|---5-5-5-55555--5-5-5-55555--------3------------3----------|
E|-----------------------------5-3-5---5-3--5-3-5---5-3------|

G|------------------------------------------------|
D|------------------------------------------------|
A|---7-7-7-77777--5-5-5-55555--5\-----------------|
E|------------------------------------------------|


End Guitar solo:
G|------------------------------2----------------------------------------|
D|----------------------------25-----------------------------------------|
A|---------3--------------35-5-----------3--------------35-5h7p530-------|
E|---5-3-5---5-3--5-3-5-35---------5-3-5---5-3--5-3-5-35-----------------|

Bass solo:
G|------------------------------2-------------------------------------|
D|----------------------------25--------------------------------------|
A|---------3--------------35-5-----------3--------------35-5h7p530----|
E|---5-3-5---5-3--5-3-5-35---------5-3-5---5-3--5-3-5-35--------------|

G|----------------------------------------------------------------------|
D|---------------5h77777-75------------------------------------25-------|
A|---------3----------------7553------------3--------------35-5---------|
E|---5-3-5---5-3------------------53--5-3-5---5-3--5-3-5-35-------------|

G|----------------------------------------------------------------------------2---------|
D|-------------------------------------777-555----------------------------25------------|
A|---7777--7777-7777-77/\--------3-------------777-555-53-------------35-5--------------|
E|-------------------------5-3-5---5-3--------------------5-3-5-3-5-35------------------|


Chorus:
G|---------------------------------------------------------|
D|---------------------------------------------------------|
A|---5-5-5-55555--5-5-5-55555--------3------------3--------|
E|-----------------------------5-3-5---5-3--5-3-5---5-3----|

G|----------------------------------------|
D|----------------------------------------|
A|---7-7-7-77777--5-5-5-55555-------------|
E|----------------------------------------|


Outro:
G|------------------------------------------------------------------------|
D|------------------------------------------------------------------------|
A|---------3----------------3----------------3----------------3-----------|
E|---5-3-5---5-3--5\--5-3-5---5-3--5\--5-3-5---5-3--5\--5-3-5---5-3--5\---|


| /  slide up
| \  slide down
| h  hammer-on
| p  pull-off
| ~  vibrato
| +  harmonic
| x  Mute note
comments
print report bad tab
2 comments total.
0 reply
Magpulsam wrote on March 3 2013, 08:00 am

I think the start of the solo should go like this:

G|--------------------------------------­-------------|
D|--------------------------------------­--57--------|
A|-----------3-------------------35-57--­---------|
E|---5-3-5---0-3--5-3-5-35--------------­-----| x 4 times

0 reply
Magpulsam wrote on March 3 2013, 08:01 am

Sorry it got messed up when i pasted it in

I want to post or [tab]
guest
You may want to rate the tab now too:
select rating
Please do not post tabs as comments. Select "correction" instead!