Oops, an error
Loading. Please wait.

Makeout Party Bass Tab

version 2
version 2

Whole song

2,129 views 15 this week
no commentswrite comment
1 2 3 4 5
excellent!
x 4
add to favorites
launch autoscroll
font size
0
reset
guitar tuner
Autoscroll
slow
fast
+/-
esc
set tempo
stop
Help us to improve Ultimate-Guitar.com Take our survey!
×
Watch my bass cover for help: http://www.youtube.com/watch?v=hBUE9rkYCH4

Intro:
G|-----------------------------|
D|-----------------------------|
A|------3-------3--------------|
E|---535--535-35--535----------|


Verse:
G|------------|
D|------------|
A|------3-----| x4
E|---535--535-|


Chorus:
G|--------------------------------------------------|
D|--------------------------------------------------|
A|---5-5-5-55555--5-5-5-55555-----3-------3---------|
E|-----------------------------535--535-35--53------|

G|------------------------------|
D|------------------------------|
A|---7-7-7-77777--5-5-5-55555---|
E|------------------------------|

G|-----------------------------|
D|-----------------------------|
A|------3-------3--------------|
E|---535--535-35--535----------|


Verse:
G|------------|
D|------------|
A|------3-----| x4
E|---535--535-|


Chorus:
G|--------------------------------------------------|
D|--------------------------------------------------|
A|---5-5-5-55555--5-5-5-55555-----3-------3---------|
E|-----------------------------535--535-35--53------|

G|------------------------------|
D|------------------------------|
A|---7-7-7-77777--5-5-5-55555---|
E|------------------------------|

G|-----------------------------|
D|-----------------------------|
A|------3-------3--------------|
E|---535--535-35--535----------|


Guitar solo:
G|------------|
D|------------|
A|------3-----| x4
E|---535--535-|

G|--------------------------------------------------|
D|--------------------------------------------------|
A|---5-5-5-55555--5-5-5-55555-----3-------3---------|
E|-----------------------------535--535-35--53------|

G|------------------------------------------------|
D|------------------------------------------------|
A|---7-7-7-77777--5-5-5-55555--5\-----------------|
E|------------------------------------------------|


End Guitar solo:
G|-------------------------------------------------|
D|----------------------57-------------------------|
A|-------3-------355-77-------3--------355-77-53---|
E|---535---035-35----------535--035-35-------------|


Bass solo:
G|-------------------------------------------------|
D|----------------------57-------------------------|
A|-------3-------355-77-------3--------355-77-53---|
E|---535---035-35----------535--035-35-------------|

G|------------------------------------------------------------------------|
D|------------5h77777777-755-----------------------57--5h777777777777777--|
A|------3--------------------7755----3------355-77------------------------|
E|---535--03---------------------535--035-35------------------------------|

G|--------------------------------------|
D|--------777555---------------------57-|
A|----3----------777555335----355-77----|
E|535--03------------------535----------|


Chorus:
G|--------------------------------------------------|
D|--------------------------------------------------|
A|---5-5-5-55555--5-5-5-55555-----3-------3---------|
E|-----------------------------535--535-35--53------|

G|------------------------------|
D|------------------------------|
A|---7-7-7-77777--5-5-5-55555---|
E|------------------------------|


Outro:
G|------------|
D|------------|
A|------3-----| x4
E|---535--535-|

Suggest correction
comments
print report bad tab
guest
You may want to rate the tab now too:
select rating
Please do not post tabs as comments. Select "correction" instead!