Oops, an error
Loading. Please wait.

Maria Chords

version 2
version 2

Whole song

Interactive

4,148 views 21 this week
1 commentread comment
1 2 3 4 5
excellent!
x 6
add to favorites
launch autoscroll
font size
0
reset
transpose
0
reset
simplify chords
display chords
guitar tuner
Tab Pro tools
  • play this tab
  • loop segment
  • change instrument
  • show fretboard
  • metronome
×
Best way to learn
"Maria"
Autoscroll
slow
fast
+/-
esc
set tempo
stop
Contributor
Artist    : Green Day
Song      : Maria
Album     : International Superhits
Tabbed By : Ketan (ketan.gupta50@yahoo.co.in)

Tuning : Standard (eBGDAE)

CHORDS USED
     D5      A5      E5     G#5
e|---------------------------------------------------------------------------|
B|---------------------------------------------------------------------------|
G|---7---------------9-------------------------------------------------------|
D|---7-------7-------9-------6-----------------------------------------------|
A|---5-------7-------7-------6-----------------------------------------------|
E|-----------5---------------4-----------------------------------------------|


[INTRO]
D5  A5    x2


[VERSE]
D5     A5
       She smashed the radio with the board of education
D5     A5
       Turn up the static left of the state of the nation


[PRE-CHORUS]
A5 G#5 E5
       Turn up the flame, step on the gas
A5 G#5 E5       
       Burning the flag at half mast
A5 G#5 E5       
       She's a rebel's forgotten son
A5 G#5 E5       
       An export of the revolution


[VERSE]
D5     A5     
       She is the first voice of the last ones in the line
D5     A5
       She'll drag the lake to keep the vendetta alive


[PRE-CHORUS]
A5 G#5 E5
       Bring in the head of the government
A5 G#5 E5
       The dog ate the document
A5 G#5 E5
       Somebody shot the President
A5 G#5 E5
       And no one knows where Maria went?


[CHORUS]
       D5 A5  D5 A5  D5 A5
       Maria, Maria, Maria,
                     E5
       Where did you go?

       
       E5   A5   x4


[BRIDGE] 
          E5       A5         E5  A5
       Be careful what you're offering
            E5           A5     E5    A5
       Your breath lacks the conviction
       E5      A5       E5     A5
       Drawing the line in the dirt
         E5        A5     E5    
       Because the last decision
              
       ....is no. 


[SOLO]
       D5  A5  D5  A5  D5  A5  E5   x2  


[VERSE]
D5     A5
       She smashed the radio with the board of education
D5     A5
       Turn up the static left of the state of the nation


[PRE-CHORUS]
A5 G#5 E5
       Turn up the flame, step on the gas
A5 G#5 E5       
       Burning the flag at half mast
A5 G#5 E5       
       She's a rebel's forgotten son
A5 G#5 E5       
       An export of the revolution


[CHORUS]
       D5 A5  D5 A5  D5 A5
       Maria, Maria, Maria,
                     E5
       Where did you go?


[CHORUS]
       D5 A5  D5 A5  D5 A5
       Maria, Maria, Maria,
                     E5
       Where did you go?


[OUTRO]
          E5         A5         E5         A5         E5         A5         E5
       e|---------------------------------------------------------------------------|
       B|-9---9--9---10--10-10--12--12-12--10--10-10--9---9--9---10--10-10--12-12-12|
       G|-9---9--9---9---9--9---9---9--9---9---9--9---9---9--9---9---9--9---9--9--9-|
       D|---------------------------------------------------------------------------|
       A|---------------------------------------------------------------------------|
       E|---------------------------------------------------------------------------|

       
       D5   A5
comments
print report bad tab
1 comment total.
0 reply
MyDayGreenDay wrote on March 27 2014, 07:28 am

organized!

I want to post or [tab]
guest
You may want to rate the tab now too:
select rating
Please do not post tabs as comments. Select "correction" instead!