Oops, an error
Loading. Please wait.

Maria Tab

version 4
version 4

Interactive

377 views 1 this week
1 commentread comment
1 2 3 4 5
please rate
add to favorites
launch autoscroll
font size
0
reset
how to read this tab
guitar tuner
Autoscroll
slow
fast
+/-
esc
set tempo
stop
Help us to improve Ultimate-Guitar.com Take our survey!
×
Contributor
greenday2003 1,242
ARTIST: Green Day
SONG:Maria
ALBUM:International Superhits
Email:greenday_rhcp2002@yahoo.co.uk
  
Great Song..Think its 99% accurate..any comments to e-mail..cheers


 Intro
e|-----------------------------------------|
B|-----------------------------------------|
G|-7-7-7-----------------------------------|
D|-7-7-7-7---------------------------------|
A|-5-5-5-7---------------------------------|
E|-------5-5-5-5-5-5-5-5-5-5-5-5-5-5-5-5-5-|

  Pre Chorus
 |-----------------------|
 |-----------------------|
 |-7\6---9-9-9-9-9-9-9-9-|
 |-7\6-7-9-9-9-9-9-9-9-9-|
 |-5\4-7-7-7-7-7-7-7-7-7-|
 |-----5-----------------|


  Chorus
 |-----------------------------------------------------
 |-----------------------------------------------------
 |-7-7-7-7-7-7---------------7-7-7-7-7-7---------------
 |-7-7-7-7-7-7--7-7-7-7-7-7--7-7-7-7-7-7--7-7-7-7-7-7--
 |-5-5-5-5-5-5--7-7-7-7-7-7--5-5-5-5-5-5--7-7-7-7-7-7--
 |--------------5-5-5-5-5-5---------------5-5-5-5-5-5--

  ---------------------------------------------------|
  ---------------------------------------------------|
  -7-7-7-7-7-7---------------9-9-9-9-9-9-9-9-9-9-9-9-|
  -7-7-7-7-7-7--7-7-7-7-7-7--9-9-9-9-9-9-9-9-9-9-9-9-|
  -5-5-5-5-5-5--7-7-7-7-7-7--7-7-7-7-7-7-7-7-7-7-7-7-|
  --------------5-5-5-5-5-5--------------------------|


 Inturlude
 |-----------------|
 |-----------------|
 |--------10-10-10-|
 |-9-9-9---9--9--9-|
 |-9-9-9---7--7--7-|
 |-7-7-7-----------|


  Solo guitar 1(guitar2 plays chorus 2 times in the background of solo)
 |---------------7-7-----7-7------|
 |-7-8-10-7------7-7-----7-7------|
 |-7-7--7----9b-------9b-------9b-|
 |--------------------------------|
 |--------------------------------|
 |--------------------------------| Repeat this part 3 times
 
 |--------5-5-7-5-4-5---------5-5-7-5-4-5-5~-|
 |-7-7-7---------------7-7-7-----------------|
 |-------------------------------------------|
 |-------------------------------------------|
 |-------------------------------------------|
 |-------------------------------------------|


 Outro
 |----------|
 |----------|
 |-7-7-7----|
 |-7-7-7--7-|
 |-5-5-5--7-|
 |- ------5-|

  


Order

Intro      x 4
Pre Chorus x 4
Intro      x 2
Pre Chorus x 3
Chorus     x 1
Inturlude  x 12
Solo       x 2  (Guitar 2 plays chorus x2 in background)
Intro      x 2 
Pre Chorus x 4
Chorus     x 2
Inturlude  x 8
Outro      x 1
comments
We did not receive enough feedback on this tab! Please rate:
print report bad tab
1 2 3 4 5
1 comment total.
0 reply
Squirrel1993 1,025 wrote on December 29 2006, 04:36 pm

i dont see whts so bad about it... only the pre chorus is this instead:
|-------------------
|-------------------
|--------9-9-9-9-9--
|-7-6----9-9-9-9-9--
|-7-6----7-7-7-7-7--
|-5-4-0-------------

I want to post or [tab]
guest
You may want to rate the tab now too:
select rating
Please do not post tabs as comments. Select "correction" instead!