Oops, an error
Loading. Please wait.

Minority Chords

version 2
version 2

Whole song

Video

19,332 views 18 this week
7 commentsread comments
1 2 3 4 5
accurate
x 8
add to favorites
launch autoscroll
font size
0
reset
transpose
0
reset
simplify chords
display chords
guitar tuner
Autoscroll
slow
fast
+/-
esc
set tempo
stop
Help us to improve Ultimate-Guitar.com Take our survey!
×
#-----------------------------PLEASE NOTE-------------------------------------#
#This OLGA file is the author's own work and represents their interpretation  #
#of the song. You may only use this file for private study, scholarship, or   #
#research. Remember to view this file in Courier, or some other monospaced    #
#font. See http://www.olga.net/faq/ for more information.                     #
#-----------------------------------------------------------------------------#

Date: Mon, 4 Sep 2000 22:32:01 -0400
From: Tony Cossentino 
Subject: g/green_day/minority.crd

Author/Artist: Greenday
Title: Minority                                                              
Transcribed by: Tony Cossentino
Email: Tony@cossentino.com


This is a sweet song with a touch of drunken Irishness


Acoustic finger pickin intro/outro
         C                G             Fmaj7            C
E------------------:--------------:----------0----:--------------
B------------1-----:---------3----:----1--------1-:----------1---
G------0---------0-:---0--------0-:-------0-------:-------0------
D---------2--------:------0-------:-3-------------:--0h2---------
A---3--------------:--------------:---------------:3-----------3-
E------------------:3-------------:---------------:--------------

        C               G      F  C  G  C
E----------------:-----------:-----------------------------------
B-----------1----:--------3--:-----------------------------------
G--------0-----0-:--0--------:-2--0--0---------------------------
D---0h2----------:-----0-----:-3--2--0--2------------------------
A----------------:-----------:----------3------------------------
E----------------:3----------:-----------------------------------


Chorus Riff
  
E----------------------------------------------------------------
B----------------------------------------------------------------
G---5-5-5-5-x----------------------------------------------------
D---5-5-5-5-x-3-3-3-3-x-5-5-5-5-x-3-3-3-3------------------------
A---3-3-3-3-x-3-3-3-3-x-5-5-5-5-x-3-3-3-3------------------------
E---3-3-3-3-x-1-1-1-1-x-3-3-3-3-x-1-1-1-1------------------------

Pre Chorus Riff(Acoustic)

E---0---0-0---3---3-3---1---1-1---0---0-0------------------------
B---1---1-1---3---3-3---1---1-1---1---1-1------------------------
G---0---0-0---0---0-0---2---2-2---0---0-0------------------------
D---2---2-2---0---0-0---3---3-3---2---2-2------------------------
A---3---3-3---2---2-2---3---3-3---3---3-3------------------------
E-------------3---3-3---1---1-1----------------------------------


E---0---0-0---3---3-3---1---1-1---3---3-3------------------------
B---1---1-1---3---3-3---1---1-1---3---3-3------------------------
G---0---0-0---0---0-0---2---2-2---0---0-0------------------------
D---2---2-2---0---0-0---3---3-3---0---0-0------------------------
A---3---3-3---2---2-2---3---3-3---3---3-3------------------------
E-------------3---3-3---1---1-1---2---2-2------------------------


E---0---0-0---3---3-3---1---1-1---0---0-0------------------------
B---1---1-1---3---3-3---1---1-1---1---1-1------------------------
G---0---0-0---0---0-0---2---2-2---0---0-0------------------------
D---2---2-2---0---0-0---3---3-3---2---2-2------------------------
A---3---3-3---2---2-2---3---3-3---3---3-3------------------------
E-------------3---3-3---1---1-1----------------------------------


E---1---1-1---0---0-0---3---1-1---0---0-0------------------------
B---1---1-1---1---1-1---3---1-1---1---1-1------------------------
G---2---2-2---0---0-0---0---0-0---0---0-0------------------------
D---3---3-3---2---2-2---0---0-0---2---2-2------------------------
A---3---3-3---3---3-3---2---2-2---3---3-3------------------------
E---1---1-1-------------3---3-3----------------------------------

Bridge

E----------------------------------------------------------------
B----------------------------------------------------------------
G-------------------9---10-10-10-10------------------------------
D---7-7-7-7-7-7-7---9---10-10-10-10--10-10-10-10-----------------
A---7-7-7-7-7-7-7---7---8--8--8--8---10-10-10-10-----------------
E---5-5-5-5-5-5-5---7---8--8--8--8---8--8--8--8------------------


E----------------------------------------------------------------
B----------------------------------------------------------------
G-------------------9---10-10-10-10--12-12-12-12-----------------
D---7-7-7-7-7-7-7---9---10-10-10-10--12-12-12-12-----------------
A---7-7-7-7-7-7-7---7---8--8--8--8---10-10-10-10-----------------
E---5-5-5-5-5-5-5---7---8--8--8--8---10-10-10-10-----------------


E----------------------------------------------------------------
B----------------------------------------------------------------
G-------------------9---10-10-10-10------------------------------
D---7-7-7-7-7-7-7---9---10-10-10-10--10-10-10-10-----------------
A---7-7-7-7-7-7-7---7---8--8--8--8---10-10-10-10-----------------
E---5-5-5-5-5-5-5---7---8--8--8--8---8--8--8--8------------------



E----------------------------------------------------------------
B----------------------------------------------------------------
G----------------------12-12-x-x-x-12-12-x-x-x-12-12-12-12-12-12-
D---7-7-7-7-7-7-7--10--12-12-x-x-x-12-12-x-x-x-12-12-12-12-12-12-
A---7-7-7-7-7-7-7--8---10-10-x-x-x-10-10-x-x-x-10-10-10-10-10-10-
E---5-5-5-5-5-5-5--8---10-10-x-x-x-10-10-x-x-x-10-10-10-10-10-10-
Suggest correction
What's this?
You can suggest a correction to this tab. Community and Mods will review your correction and vote to approve or reject it.
comments
print report bad tab
7 comments total. Showing first comments.
0 reply
supergregpro 522 wrote on December 29 2001, 12:00 am

well tabbed. it works out better than my version

0 reply
Bush_Baby 16 wrote on February 7 2002, 12:00 am

This is a pimp-tight song, and i reely reely love it!! Good job, and happy tabbin!!!
~Britter~ =o) }i{

0 reply
3qdnixon 12 wrote on February 8 2002, 12:00 am

pretty damn good apart from a little bit in the bridge. apart from that the best yet

guest
You may want to rate the tab now too:
select rating
Please do not post tabs as comments. Select "correction" instead!