Oops, an error
Loading. Please wait.

Minority Bass Tab

version 3
version 3
49,381 views 81 this week
30 commentsread comments
1 2 3 4 5
accurate
x 46
add to favorites
launch autoscroll
font size
0
reset
guitar tuner
Autoscroll
slow
fast
+/-
esc
set tempo
stop
Help us to improve Ultimate-Guitar.com Take our survey!
×
Author
Green Day - Minority
Bass Tab
Standard Tuning (EADG)

Original Contributor: Unlikelyhero
New Contributor: Teh D Bot
Original Tab at Bottom 


Chorus
G|-----------------------------------------------------------------------------------|
D|-----------3-3-3-3--3-------------------------------3--3-3--3----------------------|
A|-3--3-3--3--------------------------------3--3-3--3--------------------------------|
E|----------------------3--3-3--3-1--1-1--1---------------------3--3-3--3-1-1-1-1--1-|
   1  + 2  + Tripl 4  + 1  + 2  + 3  + 4  + 1  + 2  + 3  + 4  + 1  + 2  + Tripl 4  +

G|---------------------------------------------------------------------------------|
D|---------------------------------------------------------------------------------|
A|-3--3-3--3-------------------------------3--3-3--3-------------------------------|
E|-----------1--1-1--1-3--3-3--3-1--1-1--1-----------1--1-1--1-3-3-3-3---1-1-1-1---|
   1  + 2  + 3  + 4  + 1  + 2  + 3  + 4  + 1  + 2  + 3  + 4  + Tripl 2 + Tripl 4 +

Verse
G|---------------------------------------------------------------------------------|
D|------2--------------3--3-2--0----------------2--2-------------------------------|
A|-3--3-----------2--0-----------3--3-2----3--3-----------2--0----------------2----|
E|-----------3--3------------------------3-----------3--3------1--1-0--0-3--3----3-|
   1  + 2  + 3  + 4  + 1  + 2  + 3  + 4  + 1  + 2  + 3  + 4  + 1  + 2  + 3  + 4  +

G|---------------------------------------------------------------------------------|
D|------2--------------3--3-2--0----------------2--2-3--3-2------------------------|
A|-3--3-----------2--0-----------3--3-2----3--3---------------------2----3----2----|
E|-----------3--3------------------------3---------------------3--3----3-----------|
   1  + 2  + 3  + 4  + 1  + 2  + 3  + 4  + 1  + 2  + 3  + 4  + 1  + 2  + 3  + 4  +

Chorus
G|------------------------------------------------------------------------------------|
D|------------------------------------------------------3--3-3--3---------------------|
A|-3-3-3-3--3--------------------------------3-3-3-3--3-------------------------------|
E|------------1-1-1-1--1-3--3-3--3-1--1-1--1----------------------3-3-3-3---1-1-1-1---|
   Tripl 2  + Tripl 4  + 1  + 2  + 3  + 4  + Tripl 2  + 3  + 4  + Tripl 2 + Tripl 4 +

G|-----------------------------------------------------------------------------------|
D|-----------------------------------------------------------------------------------|
A|-3-3-3-3--3--------------------------------3--3-3--3-------------------------------|
E|------------1--1-1--1-3-3-3-3--3-1--1-1--1-----------1--1-1--1-3-3-3-3---1-1-1-1---|
   Tripl 2  + 3  + 4  + Tripl 2  + 3  + 4  + 1  + 2  + 3  + 4  + Tripl 2 + Tripl 4 +

Interlude
G|-------------------------------------------------------------------------------------|
D|-----------------2---3-3-3-3--3------------------------------------------------------|
A|-0-0-0-0-0-0-0------------------3-3-3-3--3-0-0-0-0-0-0-0-----------------------------|
E|-----------------------------------------------------------0---1-1-1-1--1-3-3-3-3--3-|
   Tripl Tripl 3 + 4 + Tripl 2  + Tripl 4  + Tripl Tripl 3 + 4 + Tripl 2  + Tripl 4  +

G|-----------------------------------------------------------------------------------------------------|
D|-----------------2---3-3-3-3--3------------------------------------------------------------3-5-------|
A|-0-0-0-0-0-0-0------------------3-3-3-3--3-0-0-0-0-0-0-0-------------------------------2-3-------2---|
E|-----------------------------------------------------------1--1-3--3-----3--3-----3--3---------------|
   Tripl Tripl 3 + 4 + Tripl 2  + Tripl 4  + Tripl Tripl 3 + 4  + 1  + 2 + 3  + 4 + 1  + Tripl 3 + 4 +

Verse
G|---------------------------------------------------------------------------------|
D|------2--------------3--3-2--0----------------2--2-------------------------------|
A|-3--3-----------2--0-----------3--3-2----3--3-----------2--0----------------2----|
E|-----------3--3------------------------3-----------3--3------1--1-0--0-3--3----3-|
   1  + 2  + 3  + 4  + 1  + 2  + 3  + 4  + 1  + 2  + 3  + 4  + 1  + 2  + 3  + 4  +

G|---------------------------------------------------------------------------------|
D|------2--------------3--3-2--0----------------2--2-3--3-2------------------------|
A|-3--3-----------2--0-----------3--3-2----3--3---------------------2----3----2----|
E|-----------3--3------------------------3---------------------3--3----3-----------|
   1  + 2  + 3  + 4  + 1  + 2  + 3  + 4  + 1  + 2  + 3  + 4  + 1  + 2  + 3  + 4  +

Chorus
G|---------------------------------------------------------------------------------|
D|---------------------------------------------------------------------------------|
A|-3--3-3--3-------------------------------3--3-3--3-------------------------------|
E|-----------1--1-1--1-3--3-3--3-1--1-1--1-----------1--1-1--1-3--3-3--3-1-1-1-1---|
   1  + 2  + 3  + 4  + 1  + 2  + 3  + 4  + 1  + 2  + 3  + 4  + 1  + 2  + Tripl 4 +

G|-----------------------------------------------------------------------------------|
D|-----------------------------------------------------------------------------------|
A|-3-3-3-3--3-------------------------------3-3-3-3--3-------------------------------|
E|------------1--1-1--1-3--3-3--3-1--1-1--1------------1--1-1--1-3--3-3--3-1--1-1--1-|
   Tripl 2  + 3  + 4  + 1  + 2  + 3  + 4  + Tripl 2  + 3  + 4  + 1  + 2  + 3  + 4 +

Interlude
G|------------------------------------------------------------------------------------|
D|-----------------2---3-3-3-3--3-----------------------------------------------------|
A|-0-0-0-0-0-0-0------------------3-3-3-3--3-0-0-0-0-0-0-0----------------------------|
E|-----------------------------------------------------------0---1--1-1--1-3-3-3-3--3-|
   Tripl Tripl 3 + 4 + Tripl 2  + Tripl 4  + Tripl Tripl 3 + 4 + 1  + 2  + Tripl 4  +

G|-----------------------------------------------------------------------------------------------------|
D|-----------------2---3-3-3-3--3------------------------------------------------------------3-5-------|
A|-0-0-0-0-0-0-0------------------3-3-3-3--3-0-0-0-0-0-0-0-------------------------------2-3-------2---|
E|-----------------------------------------------------------1--1-3--3-----3--3-----3--3---------------|
   Tripl Tripl 3 + 4 + Tripl 2  + Tripl 4  + Tripl Tripl 3 + 4  + 1  + 2 + 3  + 4 + 1  + Tripl 3 + 4 +

Instrumental
G|---------------------------------------------------------------------------------|
D|------2--------------3--3-2--0----------------2--2-------------------------------|
A|-3--3-----------2--0-----------3--3-2----3--3-----------2--0----------------2----|
E|-----------3--3------------------------3-----------3--3------1--1-0--0-3--3----3-|
   1  + 2  + 3  + 4  + 1  + 2  + 3  + 4  + 1  + 2  + 3  + 4  + 1  + 2  + 3  + 4  +

Verse
G|---------------------------------------------------------------------------------|
D|------2--------------3--3-2--0----------------2--2-------------------------------|
A|-3--3-----------2--0-----------3--3-2----3--3-----------2--0----------------2----|
E|-----------3--3------------------------3-----------3--3------1--1-0--0-3--3----3-|
   1  + 2  + 3  + 4  + 1  + 2  + 3  + 4  + 1  + 2  + 3  + 4  + 1  + 2  + 3  + 4  +

G|---------------------------------------------------------------------------------|
D|------2--------------3--3-2--0----------------2--2-3--3-2------------------------|
A|-3--3-----------2--0-----------3--3-2----3--3---------------------2----3----2----|
E|-----------3--3------------------------3---------------------3--3----3-----------|
   1  + 2  + 3  + 4  + 1  + 2  + 3  + 4  + 1  + 2  + 3  + 4  + 1  + 2  + 3  + 4  +

Chorus
G|----------------------------------------------------------------------------------|
D|----------------------------------------------------3--3-3--3---------------------|
A|-3--3-3--3--------------------------------3--3-3--3-------------------------------|
E|-----------1--1-1--1-3--3-3--3-1-1-1-1--1---------------------3--3-3--3-1-1-1-1---|
   1  + 2  + 3  + 4  + 1  + 2  + Tripl 4  + 1  + 2  + 3  + 4  + 1  + 2  + Tripl 4 +

G|------------------------------------------------------------------------------------------|
D|------------------------------------------------------------------------------------------|
A|-3-3-3-3--3----------------------------------3-3-3-3--3-----------------------------------|
E|------------1-1-1-1--1-3-3-3-3--3-1-1-1-1--1------------1-1-1-1--1-3-3-3-3-3-3-1-1-1-1--1-|
   Tripl 2  + Tripl 4  + Tripl 2  + Tripl 4  + Tripl 2  + Tripl 4  + Tripl Tripl Tripl 4 +

Outro
G|--------------------------------------------------------------------------------------|
D|-----------3-3-3-3--3---------------------------------3-3-3-3--3----------------------|
A|-3--3-3--3---------------------------------3-3-3-3--3---------------------------------|
E|----------------------3-3-3-3--3-1--1-1--1-----------------------3--3-3--3-1-1-1-1--1-|
   1  + 2  + Tripl 4  + Tripl 2  + 3  + 4  + Tripl 2  + Tripl 4  + 1  + 2  + Tripl 4  +

G|------------------------------------------------------------------------------------|---|
D|------------------------------------------------------------------------3-3-3-3-3-3-|---|
A|-3-3-3-3--3-------------------------------3--3-3--3---------------------------------|-3-|
E|------------1--1-1--1-3--3-3--3-1--1-1--1-----------1--1-1--1-3--3-3--3-------------|---|
   Tripl 2  + 3  + 4  + 1  + 2  + 3  + 4  + 1  + 2  + 3  + 4  + 1  + 2  + Tripl Tripl
Tab Changed by Dave Vucko

=======================================================
Chorus (I wanna be the minority...)
G|-------------------------------------|
D|-------------------------------------|
A|-3-3-3-3-----------------------------|
E|----------1-1-1-1--3-3-3-3--1-1-1-1--|

Verse Version One (I pledge allegiance...)
G|--------------------------------------|
D|------2-------------3-3-2-0-----------|
A|--3-3---3------2-------------3-3-2-0--|
E|-----------3-3---3--------------------|

G|--------------------------------------|
D|------2-------------------------------|
A|--3-3---3------2-----------------2----|
E|-----------3-3---3--1-1-0-1--3-3---3--|

G|--------------------------------------|
D|------2-------------3-3-2-0-----------|
A|--3-3---3------2-------------3-3-2-0--|
E|-----------3-3---3--------------------|

G|---------------------------------|
D|------2----3-3-2-0---------------|
A|--3-3---3---------------2---3-2--|
E|--------------------3-3---3------|

Verse Version Two (Part One)
G|--------------------------------------|
D|------2-------------3-3-2-0-----------|
A|--3-3---3------2-------------3-3-2-0--|
E|-----------3-3---3--------------------|

G|--------------------------------------|
D|------2-------------------------------|
A|--3-3---3------2-----------------2----|
E|-----------3-3---3--1-1-0-1--3-3---3--|

Verse Version Two
G|--------------------------------------|
D|------2-------------3-3-2-0-----------|
A|--3-3---3------2-------------3-3-2-0--|
E|-----------3-3---3--------------------|

G|---------------------------------|
D|------2--------2-----------------|
A|--3-3---3--------0------2---3-2--|
E|-----------1-1------3-3---3------|

Interlude/Bridge (Marching out of time...)
G|-------------------------------------|
D|-------------------------------------|
A|----------------7--8-8-8-8-----------|
E|--5-5-5-5-5-5-5-------------8-8-8-8--|

G|-------------------------------------|
D|-------------------------------------|
A|----------------7--------------------|
E|--5-5-5-5-5-5-5----1-1-1-1--3-3-3-3--|

G|-------------------------------------|
D|-------------------------------------|
A|----------------7--8-8-8-8-----------|
E|--5-5-5-5-5-5-5-------------8-8-8-8--|

G|-------------------------------|
D|-------------------------------|
A|-------------------------------|
E|--5-5-5-5-5-5-5--1--3-3-x-x-x--|

G|------------------------------|
D|------------------------------|
A|---------------------------2--|
E|--3-3-x-x-x--3-3--3-3-3-3-----|

 Song Order:
Rest(Guitar Intro)
Chorus x4
Verse Version One x1
Chorus x8
Interlude/Bridge x1
Verse Version Two Part One and Two x1
Chorus x4
Interlude/Bridge x1
Verse Version Two Part One x2
Verse Version Two Part Two x1
Chorus x8
Rest(Guitar Exit)
Suggest correction
comments
print report bad tab
30 comments total. Showing first comments. show 1 bad comment
+3 reply
Cyber_Guitarist 10 wrote on August 9 2004, 12:00 am

shut up u idiot this tab is perfect!

+2 reply
Uncommonresults 480 wrote on November 28 2004, 12:00 am

Yeah this tab is actually very good. I think I found one error somewhere, but I forgot what it is. So for now until I remember it's perfect.

guest
You may want to rate the tab now too:
select rating
Wanna post a correction for this tab? Suggest correction