Oops, an error
Loading. Please wait.

Minority Tab

version 3
version 3
290,246 views 348 this week
80 commentsread comments
1 2 3 4 5
excellent!
x 176
add to favorites
launch autoscroll
font size
0
reset
how to read this tab
guitar tuner
Autoscroll
slow
fast
+/-
esc
set tempo
stop
Help us to improve Ultimate-Guitar.com Take our survey!
×
EADGBe   EADGBe   EADGBe       EADGBe
C-x32010 G-320033 Fmaj7-xx3210 F-133211


[Intro] (acoustic/clean)
    C          G          Fmaj7      C
e|-----------------------------0---------------|
B|-------1----------3------1------1-------1----|
G|---0----------0------0-----2--------0--------|
D|-----2----2-----0------3--------------2----2-|
A|-3--------------------------------3----------|
E|------------3--------------------------------|

   C          G          Fmaj7   C
e|-------------------------------0--|
B|-------1----------3----1--1--1-1--|
G|---0----------0-----0--2--0--0-0--|
D|-----2----2-----0------3--2--0-2--|
A|-3-----------------------------3--|
E|------------3---------------------|


[Chorus]

e|-----|----------------------------------------|
B|-----|----------------------------------------|
G|-xxx-|-5-5-5-5--------------------------------|
D|-xxx-|-5-5-5-5---3-3-3-3---5-5-5-5---3-3-3-3--| (x4)
A|-xxx-|-3-3-3-3---3-3-3-3---5-5-5-5---3-3-3-3--|
E|-----|-----------1-1-1-1---3-3-3-3---1-1-1-1--|

[Verse] (acoustic)
Just strum these chords:

    C         G        Fmaj7       C
  I pledge allegiance to the underworld
      C           G               F           G
  One nation underdog there of which I stand alone
    C           G        Fmaj7             C
  A face in the crowd, a song against them all
      C            G                F          G
  Without a doubt, singled out, the only way I know


[Bridge]

e|------------------------------------------------------------------------------------------|
B|------------------------------------------------------------------------------------------|
G|---------------9-10-10-10-10--------------2-2-2-2-2-2-2-----------------------------------|
D|-7-7-7-7-7-7-7-9-10-10-10-10-10-10-10-10--2-2-2-2-2-2-2-------------2-3----3-3-3-5-5-5-5--|
A|-7-7-7-7-7-7-7-7-8--8--8--8--10-10-10-10--0-------------0-0-0-0-0-0-2-3----3-3-3-5-5-5-5--|
E|-5-5-5-5-5-5-5---------------8--8--8--8-----------------------0-1-1-1-1----------3-3-3-3--|

e|---------------------------------------------------------------------------------------------------------|
B|---------------------------------------------------------------------------------------------------------|
G|---------------9-10-10-10-10-------------2-2-2-2-2-2-2------------------------------------------------4--|
D|-7-7-7-7-7-7-7-9-10-10-10-10-10-10-10-10-2-2-2-2-2-2-2--------------2-5-5-x-x-x-5-5-x-x-x-5-5-5-5-5-5-4--|
A|-7-7-7-7-7-7-7-7-8-8-8-8-----10-10-10-10-0-------------0-0-0-0-0-0--2-5-5-x-x-x-5-5-x-x-x-5-5-5-5-5-5-2--|
E|-5-5-5-5-5-5-5---------------8-8-8-8--------------------------------0-3-3-x-x-x-3-3-x-x-x-3-3-3-3-3-3----|

[Outro]
riff
e|----0--1--3--8--3--1--0-----0--1--3---8-----8--|
B|-1-----------------------1-----------8---8-----|
G|-----------------------------------------------|
D|-----------------------------------------------|
A|-----------------------------------------------|
E|-----------------------------------------------|


************************************

Intro
Chorus
Verse
Chorus
Bridge
Verse
Chorus
Bridge
Verse
Chorus x2 (Guitar 2 plays Outro riff on second time)
Intro

************************************

| x  Dead note 

************************************
Suggest correction
What's this?
You can suggest a correction to this tab. Community and Mods will review your correction and vote to approve or reject it.
comments
print report bad tab
80 comments total. Showing first comments.
-1 reply
theledzeppelin 10 wrote on October 30 2003, 12:00 am

its ok

+3 reply
Wings Rule 39 20 wrote on February 13 2004, 12:00 am

awesome tab

+2 reply
Drift 27 wrote on July 19 2004, 12:00 am

good tab dude.

guest
You may want to rate the tab now too:
select rating
Please do not post tabs as comments. Select "correction" instead!