Oops, an error
Loading. Please wait.

Minority Tab

version 3
version 3
285,980 views 369 this week
80 commentsread comments
1 2 3 4 5
excellent!
x 174
add to favorites
launch autoscroll
font size
0
reset
how to read this tab
guitar tuner
Tab Pro tools
  • play this tab
  • loop segment
  • change instrument
  • show fretboard
  • metronome
×
Best way to learn
"Minority"
Autoscroll
slow
fast
+/-
esc
set tempo
stop
   EADGBe   EADGBe       EADGBe   EADGBe
  C-x32010 G-320033 Fmaj7-xx3210 F-133211

  Tab legend
  x Scratch

  Intro (acoustic/clean)
   C          G          Fmaj7      C
 |-----------------------------0---------------
 |-------1----------3------1------1-------1----
 |---0----------0------0-----2--------0--------
 |-----2----2-----0------3--------------2----2-
 |-3--------------------------------3----------
 |------------3--------------------------------
 
  C          G          Fmaj7   C
 -------------------------------0--|
 -------1----------3----1--1--1-1--|
 ---0----------0-----0--2--0--0-0--|
 -----2----2-----0------3--2--0-2--|
 -3-----------------------------3--|
 ------------3---------------------|

  Chorus (x4)
 |-----|----------------------------------------|
 |-----|----------------------------------------|
 |-xxx-|-5-5-5-5--------------------------------|
 |-xxx-|-5-5-5-5---3-3-3-3---5-5-5-5---3-3-3-3--|
 |-xxx-|-3-3-3-3---3-3-3-3---5-5-5-5---3-3-3-3--|
 |-----|-----------1-1-1-1---3-3-3-3---1-1-1-1--|

  Verse (acoustic)
  Just strum these chords:
 
    C         G        Fmaj7       C
  I pledge allegiance to the underworld 
      C           G               F           G
  One nation underdog there of which I stand alone
    C           G        Fmaj7             C
  A face in the crowd, a song against them all
      C            G                F          G
  Without a doubt, singled out, the only way I know

  Bridge
 |---------------------------------------------------
 |---------------------------------------------------
 |---------9-10101010-----------2222222--------------
 |-7777777-9-10101010-10101010--2222222-2-3333-5555--
 |-7777777-7-8-8-8-8--10101010--0000000-2-3333-5555--
 |-5555555------------8-8-8-8-----------0-1111-3333--

 ----------------------------------------------------------------|
 ----------------------------------------------------------------|
 ---------9-10101010----------2222222-------------------------4--|
 -7777777-9-10101010-10101010-2222222--2-5-5xxx5-5xxx5-5-5555-4--|
 -7777777-7-8-8-8-8--10101010-0000000--2-5-5xxx5-5xxx5-5-5555-2--|
 -5555555------------8-8-8-8-----------0-3-3xxx3-3xxx3-3-3333----|

  Outro riff
 |----0--1--3--8--3--1--0-----0--1--3---8-----8--|
 |-1-----------------------1-----------8---8-----| 
 |-----------------------------------------------|
 |-----------------------------------------------|
 |-----------------------------------------------|
 |-----------------------------------------------|

 Order
 Intro
 Chorus
 Verse
 Chorus
 Bridge
 Verse
 Chorus
 Bridge
 Verse
 Chorus x2 (Guitar 2 plays Outro riff on second time)
 Intro

 Comments, praise, ransom notes etc. can go to Natfish011@aol.com
comments
print report bad tab
80 comments total. Showing first comments.
-1 reply
theledzeppelin wrote on October 30 2003, 12:00 am

its ok

+3 reply
Wings Rule 39 wrote on February 13 2004, 12:00 am

awesome tab

+2 reply
Drift wrote on July 19 2004, 12:00 am

good tab dude.

I want to post or [tab]
guest
You may want to rate the tab now too:
select rating
Please do not post tabs as comments. Select "correction" instead!