Oops, an error
Loading. Please wait.

Misery Bass Tab

version 2
version 2

Whole song

Interactive

791 views 6 this week
no commentswrite comment
1 2 3 4 5
please rate
add to favorites
launch autoscroll
font size
0
reset
guitar tuner
Tab Pro tools
  • play this tab
  • loop segment
  • change instrument
  • show fretboard
  • metronome
×
Best way to learn
"Misery"
Autoscroll
slow
fast
+/-
esc
set tempo
stop
Contributor
This is actually from songsterr

First verse
G|----------------------------------------------------------------------->
D|-----------------------------------------------------3----------------->
A|-1---1---1---1--0--1---1---1---1--0--1---1------3---3---1---1----------> 
E|---1---1---1---1-----1---1---1---1-----1---1--1---1-------1---1-0--1~~->

G|------------------------------|
D|-------------3--3-------------|
A|-4--4------3------3--1---1--0-| 
E|------0--1-------------1---1--|

second verse
G|--------------------------------------------------|
D|---------------------------------3----------------|
A|-1---1---1---1---1---1------3---3--1---1----------|  
E|---1---1---1---1---1---1--1---1------1---1-0--~~~-|

G|----------------------------------|
D|------------3---------------------|
A|-4--4-----3----3--1---1---1-0-1---|  
E|-----0--1-----1-----1-------------|

Chorus
G|---------------------------------------------------------------->
D|---------------------------------------------------------------->
A|---3---3--1---1------3---3---1---1--1--1-0-1---3---3--1---1-----> 
E|-1---1--1---1---1--1---1--1----1-------------1---1--1---1---1-0->

G|------------------------------------|
D|-----4-4----------------------------|
A|-1--1-4-4----3--3--1---1---1---1--0-| 
E|---------1--1----1~--1---1---1---1--|

third verse
G|-----------------------------------------------------------------------|
D|-----------------------------------------------------------------------|
A|-1---1---1---1---1---1------3---3--1---1-----4--4----3-----3--1---1--0-|
E|---1---1---1---1---1---1--1---1--1---1---1-0-------1---1--1-----1---1--|

G|----------|
D|----------|
A|-1---1--0-|
E|---1---1--|

fourth verse
G|---------------------------------------------------->
D|---------------------------------------------------->
A|-1---1---1---1---1---1------3---3--1---1-------4--4->  
E|---1---1---1---1---1---1--1---1--1---1---1-0-------->

G|---------------------------|
D|---------------------------|
A|-3---3--3--1---1---1-0-1---|
E|---1---1-----1-------------|

Chorus
G|---------------------------------------------------------------->
D|---------------------------------------------------------------->
A|---3---3--1---1------3---3---1---1--1--1-0-1---3---3--1---1-----> 
E|-1---1--1---1---1--1---1--1----1-------------1---1--1---1---1-0->

G|-------------------------------------|
D|--1--------------3~------------------|
A|-1-1-4------3--3---1---1---1---1-----| 
E|----2-2-1--1---------1---1---1---1-0-|

Bridge
G|----------------------------------------------------------------------->
D|---1---------------------------------------1--------------------4---4-->
A|--1----3----1---1---------3----1---1------1----3-----1---1-----4-4-4-4-> 
E|------1-1-1---1---1-0----1-1-1---1---1-0------1-1-1----1---1--2---2---->

G|------------------------------------|
D|---------3-1------------------------|
A|--3----------4--3--1---1---1---1--0-| 
E|-1-1-1-1-------------1---1---1---1--|

Mandolin solo
G|------------------------------------------------------------------------|
D|----------------------------------------------1----------3--------------|
A|-1---1---1---1---1---1------3---3--1---1--------4--4---3----4--1---1--0-|  
E|---1---1---1---1---1---1--1---1--1---1---1-0---------1-----1-----1---1--|





Guitar solo
G|----------------------------------------------------------------------|
D|---------3---------1------------------3------1------------------------|
A|-1-4-1-44--1-4-1-44---0-3-33-0--1-4-1-----------44----0-3-33-0--1-4-1-| 
E|----1---------1------1---1---------1---1--0----2--2--1---1---------1--|




Chorus
G|-------------------------------------------------------------->
D|-------------------------------------------------------------->
A|---3---3--1---1------3---3---1---1---1-0-1---3---3--1---1-----> 
E|-1---1--1---1---1--1---1--1----1-----------1---1--1---1---1-0->

G|---------------------------------------------------------------------|
D|--1-------------------------------3~~---------------3-------3--------|
A|-1-1-4------3--3----3--3------3--3----1---1---1---1---1---1---1--0-1-| 
E|----2-2-1--1----1--1-----1---1----------1---1---1-------1-------1----|

comments
We did not receive enough feedback on this tab! Please rate:
print report bad tab
1 2 3 4 5
I want to post or [tab]
guest
You may want to rate the tab now too:
select rating
Please do not post tabs as comments. Select "correction" instead!