Oops, an error
Loading. Please wait.

Misery Tab

version 2
version 2

Whole song

Interactive

15,603 views 3 this week
3 commentsread comments
1 2 3 4 5
excellent!
x 18
add to favorites
launch autoscroll
font size
0
reset
how to read this tab
guitar tuner
Autoscroll
slow
fast
+/-
esc
set tempo
stop
Help us to improve Ultimate-Guitar.com Take our survey!
×
Author
Title: Misery
Artist: Green Day
Album: Warning

Tabbed by: Mikhail Punjani (mikkyd@hotmail.com)

Tuning: 1/2 Step Down (Eb Ab Db Gb Bb Eb)

Can't anyone tab these songs correctly =) haha well, for those of you who actually
want to play this song 'the right way' i've tabbed it out for you. Have fun!

Intro: Transcribed for guitar

Eb|-------------------------------------------------------------------||
Bb|---12-11-12----8----------------12-11-12--14-15---/12--------------||
Gb|------------11---9/11---------------------------15-----------------||
Db|-------------------------------------------------------------------||
Ab|-------------------------------------------------------------------||
Eb|-------------------------------------------------------------------||

Eb|----------------------------------------------||
Bb|---------------------12---------------15-12---||
Gb|--11-11-10-9---11-12----11---11-12-11---------||
Db|----------------------------------------------||
Ab|----------------------------------------------||
Eb|----------------------------------------------||

Eb|--2--------||
Bb|--3--------||
Gb|--4--------|| Strum this once, then start the strumming for the 
Db|--4--------|| Verse. Quite simple, either finger-picked, or a 
Ab|--2--------|| Single downwards strum.
Eb|-----------||


Verse:
      
I've indicated how many time you need to strum each chord to make it
easier.
 
    (12) (4)  (4)  (1)  (1)  (4)  (4)
Eb|--2----2----2----0----3----2----2------||
Bb|--3----2----3----0----3----2----3------||
Gb|--4----3----4----1----4----3----4------||
Db|--4----4----4----2----5----4----4------||
Ab|--2----4----2----2----5----4----2------||
Eb|-------2---------0----3----2-----------||


Chorus:
             (3x)
Eb|--2----2---------0----3----2-----------||
Bb|--2----3---------0----3----2-----------||
Gb|--3----4---------1----4----3-----------||
Db|--4----4---------2----5----4-----------||
Ab|--4----2---------2----5----4-----------||
Eb|--2--------------0----3----2-----------||


Bridge:
                  (3x)
Eb|--3----2----2--------3----2------------||
Bb|--3----2----3--------3----2------------||
Gb|--4----3----4--------4----3------------||
Db|--5----4----4--------5----4------------||
Ab|--5----4----2--------5----4------------||
Eb|--3----2-------------3----2------------||


Solo 1: Mandolin (remember to stress some of the picking)

Eb|-----------------------------------------------------||
Bb|-/12-12-12--14--15-15-15-14-12--14--15-15-15---------||
Gb|---------------------------------------------11------||
Db|-----------------------------------------------------||
Ab|-----------------------------------------------------||
Eb|-----------------------------------------------------||

Eb|---------------------------------------------------||
Bb|--15-15-15-15-17--14------15-14-12-14-15-14-12-----||
Gb|---------------------11----------------------------||
Db|---------------------------------------------------||
Ab|---------------------------------------------------||
Eb|---------------------------------------------------||

Eb|-------------------------------------------------------------||
Bb|--12-12-12-14-15-14-12-----14-11-----15-14-12--12-12--12-----||
Gb|---------------------------------11--------------------------||
Db|-------------------------------------------------------------||
Ab|-------------------------------------------------------------||
Eb|-------------------------------------------------------------||


Solo 2: Distorted Guitar

Eb|------------------------------------------------------------||
Bb|------------------------------------------------------------||
Gb|------------------------------------------------------------||
Db|------------------------------------------------------------||
Ab|--2-4-5--5-4-5-7-5-4-5-4--1------2-4-4--4-5-7-4-5---0h2-----||
Eb|----------------------------2-------------------------------||


Eb|--7--/-7-------------------||
Bb|--8--/-7-------------------||
Gb|--9--/-7-------------------||
Db|--9------------------------||
Ab|--7----------4-1---5-4-2---||
Eb|-----------------2---------||


That's it!

If you have any questions or comments, e-mail me at mikkyd@hotmail.com
Suggest correction
What's this?
You can suggest a correction to this tab. Community and Mods will review your correction and vote to approve or reject it.
comments
print report bad tab
3 comments total.
+1 reply
dav3011 405 wrote on June 27 2006, 04:50 pm

bloody marvelous lol! except it does sound better on a mandolin.

+1 reply
g_tab_man 325 wrote on April 20 2008, 01:16 am

holy geeze man this is really really good.

0 reply
suburbansniper 31 wrote on November 7 2011, 01:22 pm

i know its a bit random but is there any chance that you could put the order that you play the sections in at the bottom :d ta

guest
You may want to rate the tab now too:
select rating
Please do not post tabs as comments. Select "correction" instead!