Oops, an error
Loading. Please wait.
We have an official Missing You tab made by UG professional guitarists. Check out the tab »
×
1,381 views 3 this week
2 commentsread comments
1 2 3 4 5
x 6
add to favorites
launch autoscroll
font size
0
reset
how to read this tab
guitar tuner
×
Best way to learn
"Missing You"
Autoscroll
slow
fast
+/-
esc
set tempo
stop
************************************

| /   slide up
| \   slide down
| h   hammer-on
| p   pull-off
| ~   vibrato
| +   harmonic
| .   Palm Mute
| b   Bend
| pb  Pre-bend
| br  Bend release
| pbr Pre-bend release
| brb Bend release bend

************************************

EDIT 1 (5/27/13): I Added spaces between the rows since they were all clustered,
which may have made it hard for some people to read the tab.

EDIT 2 (7/9/13): I changed the last chord on the Intro from x022xx to 577xxx. It still 
sounds the same and it easier to play, since you don't have to go from
x799xx to x022xx



INTRO x2
e|------0----------|-----------------|
B|------0----3-----|-----------------|
G|-2---------2-----|-----7---9-------|
D|-2----2----0-----|-4---7---9---7---|
A|-0----2----------|-4---5---7---7---|
E|------0----------|-2-----------5---|



VERSE x1
"Waking up, feeling naked, in my clothes..."
e|-----------------|-----------------|-----------------|-----------------|
B|-----------------|-----------------|-----------------|-----------------|
G|-----------------|-----------------|-6-6-6-6-6-6-6-6-|-6-6-6-6-6-6-6-6-|
D|-7---7-7-7-7-7-7-|-7-7-7-7-7-7-7-7-|-6-6-6-6-6-6-6-6-|-6-6-6-6-6-6-6-6-|
A|-7---7-7-7-7-7-7-|-7-7-7-7-7-7-7-7-|-4-4-4-4-4-4-4-4-|-4-4-4-4-4-4-4-4-|
E|-5---5-5-5-5-5-5-|-5-5-5-5-5-5-5-5-|-----------------|-----------------|
       .................................................................

e|-----------------|-----------------|-----------------|-----------------|
B|-----------------|-----------------|-----------------|-----------------|
G|-7-7-7-7-7-7-7-7-|-7-7-7-7-7-7-7-7-|-----------------|-----------------|
D|-7-7-7-7-7-7-7-7-|-7-7-7-7-7-7-7-7-|-7-7-7-7-7-7-7-7-|-7-7-7-7-7-7-7-7-|
A|-5-5-5-5-5-5-5-5-|-5-5-5-5-5-5-5-5-|-7-7-7-7-7-7-7-7-|-7-7-7-7-7-7-7-7-|
E|-----------------|-----------------|-5-5-5-5-5-5-5-5-|-5-5-5-5-5-5-5-5-|
   ...................................................................

e|-----------------|-----------------|-----------------|-----------------|
B|-----------------|-----------------|-----------------|-----------------|
G|-----------------|-----------------|-6---6-6-6-6-6-6-|-6-6-6-6-6-6-6-6-|
D|----x-7-7--------|----7----7-7-----|-6---6-6-6-6-6-6-|-6-6-6-6-6-6-6-6-|
A|----x-7-7--------|----7----7-7-----|-4---4-4-4-4-4-4-|-4-4-4-4-4-4-4-4-|
E|----x-5-5--------|----5----5-5-----|-----------------|-----------------|
                                           .............................

e|-----------------|-----------------|-----------------|-----------------|
B|-----------------|-----------------|-----------------|-----------------|
G|-7-7-7-7-7-7-7-9-|---9-9-9-9-9-9-9-|-----------------|-----------------|
D|-7-7-7-7-7-7-7-9-|---9-9-9-9-9-9-9-|-7-7-7-7-7-7-7-7-|-7-7-7-7-7-7-7-7-|
A|-5-5-5-5-5-5-5-7-|---7-7-7-7-7-7-7-|-7-7-7-7-7-7-7-7-|-7-7-7-7-7-7-7-7-|
E|-----------------|-----------------|-5-5-5-5-5-5-5-5-|-5-5-5-5-5-5-5-5-|
   .............       ...............................



PRE-CHORUS x1
"I searched the moon, I lost my head..."
e|-----------------|-----------------|-----------------|-----------------|
B|-----------------|-----------------|-----------------|-----------------|
G|-7---7-----------|-9---9-----------|-7---7-----------|-9---9-----------|
D|-7---7-7---7--7--|-9---9-7---7--7--|-7---7-7---7--7--|-9---9-7---7--7--|
A|-5---5-7---7--7--|-7---7-7---7--7--|-5---5-7---7--7--|-7---7-7---7--7--|
E|-------5---5--5--|-------5---5--5--|-------5---5--5--|-------5---5--5--|

e|-----------------|-----------------|-----------------|-----------------|
B|-----------------|-----------------|-----------------|-----------------|
G|-7---7-----------|-9---9-----------|-7-7-7-7-7-7-7-7-|-9-9-9-9-9-9-9-9-|
D|-7---7-7---7--7--|-9---9-7---7--7--|-7-7-7-7-7-7-7-7-|-9-9-9-9-9-9-9-9-|
A|-5---5-7---7--7--|-7---7-7---7--7--|-5-5-5-5-5-5-5-5-|-7-7-7-7-7-7-7-7-|
E|-------5---5--5--|-------5---5--5--|-----------------|-----------------|



CHORUS x2
"I'm missing you, I'm missing you, you're not around..."
e|-----------------|-----------------|-----------------|-----------------|
B|-----------------|-----------------|-----------------|-----------------|
G|-----------------|-9---9-9-9-9-9-9-|-7---7-7-7-7-7-7-|-7-7-7-7-7-7-7-7-|
D|-7---7-7-7-7-7-7-|-9---9-9-9-9-9-9-|-7---7-7-7-7-7-7-|-7-7-7-7-7-7-7-7-|
A|-7---7-7-7-7-7-7-|-7---7-7-7-7-7-7-|-5---5-5-5-5-5-5-|-5-5-5-5-5-5-5-5-|
E|-5---5-5-5-5-5-5-|-----------------|-----------------|-----------------|

e|-----------------|-----------------|-----------------|-----------------|
B|-----------------|-----------------|-----------------|-----------------|
G|-----------------|-6---6-6-6-6-6-6-|-7---7-7-7-7-7-7-|-7-7-7-7-7-9-9---|
D|-7---7-7-7-7-7-7-|-6---6-6-6-6-6-6-|-7---7-7-7-7-7-7-|-7-7-7-7-7-9-9---|
A|-7---7-7-7-7-7-7-|-4---4-4-4-4-4-4-|-5---5-5-5-5-5-5-|-5-5-5-5-5-7-7---|
E|-5---5-5-5-5-5-5-|-----------------|-----------------|-----------------|



VERSE x1
"Remember, was the first time, I told you I loved you at the bus station..."
e|-----------------|-----------------|-----------------|-----------------|
B|-----------------|-----------------|-----------------|-----------------|
G|-----------------|-----------------|-6-6-6-6-6-6-6-6-|-6-6-6-6-6-6-6-6-|
D|-7---7-7-7-7-7-7-|-7-7-7-7-7-7-7-7-|-6-6-6-6-6-6-6-6-|-6-6-6-6-6-6-6-6-|
A|-7---7-7-7-7-7-7-|-7-7-7-7-7-7-7-7-|-4-4-4-4-4-4-4-4-|-4-4-4-4-4-4-4-4-|
E|-5---5-5-5-5-5-5-|-5-5-5-5-5-5-5-5-|-----------------|-----------------|
       .................................................................

e|-----------------|-----------------|-----------------|-----------------|
B|-----------------|-----------------|-----------------|-----------------|
G|-7-7-7-7-7-7-7-7-|-7-7-7-7-7-7-7-7-|-----------------|-----------------|
D|-7-7-7-7-7-7-7-7-|-7-7-7-7-7-7-7-7-|-7-7-7-7-7-7-7-7-|-7-7-7-7-7-7-7-7-|
A|-5-5-5-5-5-5-5-5-|-5-5-5-5-5-5-5-5-|-7-7-7-7-7-7-7-7-|-7-7-7-7-7-7-7-7-|
E|-----------------|-----------------|-5-5-5-5-5-5-5-5-|-5-5-5-5-5-5-5-5-|
   ...................................................................

e|-----------------|-----------------|-----------------|-----------------|
B|-----------------|-----------------|-----------------|-----------------|
G|-----------------|-----------------|-6---6-6-6-6-6-6-|-6-6-6-6-6-6-6-6-|
D|----x-7-7--------|----7----7-7-----|-6---6-6-6-6-6-6-|-6-6-6-6-6-6-6-6-|
A|----x-7-7--------|----7----7-7-----|-4---4-4-4-4-4-4-|-4-4-4-4-4-4-4-4-|
E|----x-5-5--------|----5----5-5-----|-----------------|-----------------|
                                           .............................

e|-----------------|-----------------|-----------------|-----------------|
B|-----------------|-----------------|-----------------|-----------------|
G|-7-7-7-7-7-7-7-9-|---9-9-9-9-9-9-9-|-----------------|-----------------|
D|-7-7-7-7-7-7-7-9-|---9-9-9-9-9-9-9-|-7-7-7-7-7-7-7-7-|-7-7-7-7-7-7-7-7-|
A|-5-5-5-5-5-5-5-7-|---7-7-7-7-7-7-7-|-7-7-7-7-7-7-7-7-|-7-7-7-7-7-7-7-7-|
E|-----------------|-----------------|-5-5-5-5-5-5-5-5-|-5-5-5-5-5-5-5-5-|
   .............       ...............................



PRE-CHORUS x1
"I searched the moon, I lost my head..."
e|-----------------|-----------------|-----------------|-----------------|
B|-----------------|-----------------|-----------------|-----------------|
G|-7---7-----------|-9---9-----------|-7---7-----------|-9---9-----------|
D|-7---7-7---7--7--|-9---9-7---7--7--|-7---7-7---7--7--|-9---9-7---7--7--|
A|-5---5-7---7--7--|-7---7-7---7--7--|-5---5-7---7--7--|-7---7-7---7--7--|
E|-------5---5--5--|-------5---5--5--|-------5---5--5--|-------5---5--5--|

e|-----------------|-----------------|-----------------|-----------------|
B|-----------------|-----------------|-----------------|-----------------|
G|-7---7-----------|-9---9-----------|-7-7-7-7-7-7-7-7-|-9-9-9-9-9-9-9-9-|
D|-7---7-7---7--7--|-9---9-7---7--7--|-7-7-7-7-7-7-7-7-|-9-9-9-9-9-9-9-9-|
A|-5---5-7---7--7--|-7---7-7---7--7--|-5-5-5-5-5-5-5-5-|-7-7-7-7-7-7-7-7-|
E|-------5---5--5--|-------5---5--5--|-----------------|-----------------|



CHORUS x2
"I'm missing you, I'm missing you, you're not around..."
e|-----------------|-----------------|-----------------|-----------------|
B|-----------------|-----------------|-----------------|-----------------|
G|-----------------|-9---9-9-9-9-9-9-|-7---7-7-7-7-7-7-|-7-7-7-7-7-7-7-7-|
D|-7---7-7-7-7-7-7-|-9---9-9-9-9-9-9-|-7---7-7-7-7-7-7-|-7-7-7-7-7-7-7-7-|
A|-7---7-7-7-7-7-7-|-7---7-7-7-7-7-7-|-5---5-5-5-5-5-5-|-5-5-5-5-5-5-5-5-|
E|-5---5-5-5-5-5-5-|-----------------|-----------------|-----------------|

e|-----------------|-----------------|-----------------|-----------------|
B|-----------------|-----------------|-----------------|-----------------|
G|-----------------|-6---6-6-6-6-6-6-|-7---7-7-7-7-7-7-|-7-7-7-7-7-9-9---|
D|-7---7-7-7-7-7-7-|-6---6-6-6-6-6-6-|-7---7-7-7-7-7-7-|-7-7-7-7-7-9-9---|
A|-7---7-7-7-7-7-7-|-4---4-4-4-4-4-4-|-5---5-5-5-5-5-5-|-5-5-5-5-5-7-7---|
E|-5---5-5-5-5-5-5-|-----------------|-----------------|-----------------|



SOLO x1
e|-----------------|-----------------|-----------------|-----------------|
B|--5----5----5----|-5-5-5-5-5-5-5-5-|--7----7----7----|-----------------|
G|--7b---7b---7----|-7-7-7-7-7-7-7-7-|--9b---9b---9----|-6-6-6-6-6-6-6-6-|
D|-----------------|-----------------|-----------------|-----------------|
A|-----------------|-----------------|-----------------|-----------------|
E|-----------------|-----------------|-----------------|-----------------|

e|-----------------|-----------------|-----------------|----------------------------|
B|--5----5----5----|-5-5-5-5-5-5-5-5-|--7----7----7----|-----19-----19b-----19------|
G|--7b---7b---7----|-7-7-7-7-7-7-7-7-|--9b---9b---9b---|-16b----16b-----16b----16b--|
D|-----------------|-----------------|-----------------|----------------------------|
A|-----------------|-----------------|-----------------|----------------------------|
E|-----------------|-----------------|-----------------|----------------------------|



BRIDGE x4
"Well she's my blood, well she's my soul..."
e|-----------------|-----------------|-----------------|-----------------|
B|-10---x-9----x-7-|--x-7-----7-7----|-10---x-9---x-10-|--x-10----10-10--|
G|-9----x-9----x-9-|--x-9-----9-9----|-9----x-9---x-9--|--x-9-----9--9---|
D|-----------------|-----------------|-----------------|-----------------|
A|-----------------|-----------------|-----------------|-----------------|
E|-----------------|-----------------|-----------------|-----------------|



INTRO x2
e|------0----------|-----------------|
B|------0----3-----|-----------------|
G|-2---------2-----|-----7---9-------|
D|-2----2----0-----|-4---7---9---7---|
A|-0----2----------|-4---5---7---7---|
E|------0----------|-2-----------5---|



CHORUS x2
"I'm missing you, I'm missing you, you're not around..."
e|-----------------|-----------------|-----------------|-----------------|
B|-----------------|-----------------|-----------------|-----------------|
G|-----------------|-9---9-9-9-9-9-9-|-7---7-7-7-7-7-7-|-7-7-7-7-7-7-7-7-|
D|-7---7-7-7-7-7-7-|-9---9-9-9-9-9-9-|-7---7-7-7-7-7-7-|-7-7-7-7-7-7-7-7-|
A|-7---7-7-7-7-7-7-|-7---7-7-7-7-7-7-|-5---5-5-5-5-5-5-|-5-5-5-5-5-5-5-5-|
E|-5---5-5-5-5-5-5-|-----------------|-----------------|-----------------|

e|-----------------|-----------------|-----------------|-----------------|
B|-----------------|-----------------|-----------------|-----------------|
G|-----------------|-6---6-6-6-6-6-6-|-7---7-7-7-7-7-7-|-7-7-7-7-7-9-9---|
D|-7---7-7-7-7-7-7-|-6---6-6-6-6-6-6-|-7---7-7-7-7-7-7-|-7-7-7-7-7-9-9---|
A|-7---7-7-7-7-7-7-|-4---4-4-4-4-4-4-|-5---5-5-5-5-5-5-|-5-5-5-5-5-7-7---|
E|-5---5-5-5-5-5-5-|-----------------|-----------------|-----------------|



INTRO x1
e|------0----------|-----------------|
B|------0----3-----|-----------------|
G|-2---------2-----|-----7---9-------|
D|-2----2----0-----|-4---7---9---7---|
A|-0----2----------|-4---5---7---7---|
E|------0----------|-2-----------5---|
Suggest correction
comments
print report bad tab
2 comments total.
0 reply
SimounZon 129 Jun 05, 2013 09:57 PM

NICELY DONE!! 5 stars BTW you can also play this for the intro

e|------0----------|-----------------|
B|------0----3-----|-----------------|
G|-2---------2-----|-----7---9---7---|
D|-2----2----0-----|-4---7---9---7---|
A|-0----2----------|-4---5---7---5---|
E|------0----------|-2---------------|

guest
You may want to rate the tab now too:
select rating
Wanna post a correction for this tab? Suggest correction