Oops, an error
Loading. Please wait.

Murder City Tab

version 5
version 5

Interactive

936 views 6 this week
no commentswrite comment
1 2 3 4 5
x 5
add to favorites
launch autoscroll
font size
0
reset
how to read this tab
guitar tuner
Autoscroll
slow
fast
+/-
esc
set tempo
stop
Help us to improve Ultimate-Guitar.com Take our survey!
×
Author
Murder City - Green Day

I. Intro
e|--14-14--14-14--14--|
B|--------------------| x4
G|--------------------|
D|--------------------|
A|--------------------|
E|--------------------|

II. Chorus x2
e|-------------------------------------------|
B|-------------------------------------------|
G|--4-(x16)-8-(x16)---------13-(x8)-12-(x8)--|
D|--4-------8-------6-(x16)------------------|
A|--2-------6-------6-------11------10-------|
E|------------------4------------------------|

III. 
e|---------------------------------------------------------------|
B|---------------------------------------------------------------|
G|---------------------------------------------------------------|
D|----------------8-8-8-8-8-8-8-8--------------------------------|
A|--9-9-9-9-9-9-9-6-6-6-6-6-6-6-6-6-6-6-6-6-6-6-6-6-6-6-6-6-6-6--|
E|--7-7-7-7-7-7-7-----------------4-4-4-4-4-4-4-4-4-4-4-4-4-4-4--|
 : : : : : : : : : : : : : : : : : : : : : : : : : : : :

e|---------------------------------------------------------------|
B|---------------------------------------------------------------|
G|---------------------------------------------------------------|
D|--9-9-9-9-9-9-9-----------------11111111111111111111111111111--|
A|--7-7-7-7-7-7-7-9-9-9-9-9-9-9-9-9-9-9-9-9-9-9-9-9-9-9-9-9-9-9--|
E|----------------7-7-7-7-7-7-7-7--------------------------------|
 : : : : : : : : : : : : : : : : : : : : : : : : : : : :



IV. Pre-Chorus
e|--------------|
B|--------------|
G|--9-(x16)-12--|
D|--9-----------|
A|--7-------10--|
E|--------------|

V. Repeat Chorus

VI. Solo x2
e|----------------------------------------------------------------|
B|-7------7-------7------7-------8-------8--------8-------9-11--9-|
G|-9^(11)-9^(11)--9^(11)-9^(11)--10^(12)-10^(12)--10^(12)---------|
D|----------------------------------------------------------------|
A|----------------------------------------------------------------|
E|----------------------------------------------------------------|

e|--------------------------------------------------------------------|
B|-9-------9--------9-------9--------9-------9--------8-------8-------|
G|-11^(13)-11^(13)--11^(13)-11^(13)--11^(13)-11^(13)--10^(12)-10^(12)-|
D|--------------------------------------------------------------------|
A|--------------------------------------------------------------------|
E|--------------------------------------------------------------------|

VII. Repeat Verse

VIII. Repeat Pre-Chorus

IX. Repeat Chorus

X. Out Chorus
Solo Repeat Over Chorus

this is a cut out and the fix ups posted on the comments
enjoy :)
Suggest correction
comments
print report bad tab
guest
You may want to rate the tab now too:
select rating
Wanna post a correction for this tab? Suggest correction