Oops, an error
Loading. Please wait.

Murder City Tab

version 6
version 6

Interactive

261 views 1 this week
no commentswrite comment
1 2 3 4 5
please rate
add to favorites
launch autoscroll
font size
0
reset
how to read this tab
guitar tuner
Autoscroll
slow
fast
+/-
esc
set tempo
stop
Help us to improve Ultimate-Guitar.com Take our survey!
×
Contributor
Difficulty
intermediate
Reach TheSlyFooX at 
Ckerns@westernlocalstudents.com
for comments or questions

10/1/12

Murder City
Green Day
21st CenturyBreakdown

Guitarists:
Billie Joe Armstrong
Jason White

Intro
e:--14-14--14--14--14-|--14-14--14--14--14-|
B:--------------------|--------------------|
G:--------------------|--------------------|
D:--------------------|--------------------|
A:--------------------|--------------------|
E:--------------------|--------------------|

e:--14-14--14--14--14-|--14-14--14--14--14-|
B:--------------------|--------------------|
G:--------------------|--------------------|
D:--------------------|--------------------|
A:--------------------|--------------------|
E:--------------------|--------------------|

Chorus
e:----------------------------------------------------------------------|
B:----------------------------------------------------99999999-88888888-|
G:------------------8888888888888888------------------99999999-99999999-|
D:-9999999999999999-8888888888888888-6666666666666666-99999999-99999999-|
A:-9999999999999999-6666666666666666-6666666666666666-77777777-77777777-|
E:-7777777777777777------------------4444444444444444-------------------|

e:----------------------------------------------------------------------|
B:----------------------------------------------------99999999-88888888-|
G:------------------8888888888888888------------------99999999-99999999-|
D:-9999999999999999-8888888888888888-6666666666666666-99999999-99999999-|
A:-9999999999999999-6666666666666666-6666666666666666-77777777-77777777-|
E:-7777777777777777------------------4444444444444444-------------------|

Verse
e:---------------------------------------------------|
B:---------------------------------------------------|
G:---------888888------------------9-99999--------11-|
D:-9-99999-888888-6-66666666666666-9-99999-999999-11-|
A:-9-99999-666666-6-66666666666666-7-77777-999999--9-|
E:-7-77777--------4-44444444444444---------777777----|
     ..... ......   ..............   ..... ......                            

e:-----------------------------|
B:-----------------------------|
G:1111111111111111111111111111-|
D:1111111111111111111111111111-|
A:-9-9-9-9-9-9-9-9-9-9-9-9-9-9-|
E:-----------------------------|
   . . . . . . . . . . . . . .                

e:---------------------------------------------------|
B:---------------------------------------------------|
G:---------888888------------------9-99999--------11-|
D:-9-99999-888888-6-66666666666666-9-99999-999999-11-|
A:-9-99999-666666-6-66666666666666-7-77777-999999--9-|
E:-7-77777--------4-44444444444444---------777777----|
     ..... ......   ..............   ..... ......                            

e:-------------------------|
B:-------------------------|
G:111111111111111111111111-|
D:111111111111111111111111-|
A:-9-9-9-9-9-9-9-9-9-9-9-9-|
E:-------------------------|
   . . . . . . . .      

Chorus
e:----------------------------------------------------------------------|
B:----------------------------------------------------99999999-88888888-|
G:------------------8888888888888888------------------99999999-99999999-|
D:-9999999999999999-8888888888888888-6666666666666666-99999999-99999999-|
A:-9999999999999999-6666666666666666-6666666666666666-77777777-77777777-|
E:-7777777777777777------------------4444444444444444-------------------|

e:----------------------------------------------------------------------|
B:----------------------------------------------------99999999-88888888-|
G:------------------8888888888888888------------------99999999-99999999-|
D:-9999999999999999-8888888888888888-6666666666666666-99999999-99999999-|
A:-9999999999999999-6666666666666666-6666666666666666-77777777-77777777-|
E:-7777777777777777------------------4444444444444444-------------------|
            
Solo
e:---------------------------------|
B:-7--7-7--7--7--7-7--7-7--7--7--7-|
G:-9b11-9b11-11-11-9b11-9b11-11-11-|
D:---------------------------------|
A:---------------------------------|
E:---------------------------------|

e:------------------------------------------------------------|
B:--8--8--8--8--8--8--8--8-9-11--9--9--9--9--9--9--9--9--8----|
G:-10b12-10b12-12-12-10b12------11b13-11b13-13-13-11b13-10b12-|
D:------------------------------------------------------------|
A:------------------------------------------------------------|
E:------------------------------------------------------------|

Verse
e:---------------------------------------------------|
B:---------------------------------------------------|
G:---------888888------------------9-99999--------11-|
D:-9-99999-888888-6-66666666666666-9-99999-999999-11-|
A:-9-99999-666666-6-66666666666666-7-77777-999999--9-|
E:-7-77777--------4-44444444444444---------777777----|
     ..... ......   ..............   ..... ......                           

e:-----------------------------|
B:-----------------------------|
G:1111111111111111111111111111-|
D:1111111111111111111111111111-|
A:-9-9-9-9-9-9-9-9-9-9-9-9-9-9-|
E:-----------------------------|
   . . . . . . . . . . . . . .                

e:---------------------------------------------------|
B:---------------------------------------------------|
G:---------888888------------------9-99999--------11-|
D:-9-99999-888888-6-66666666666666-9-99999-999999-11-|
A:-9-99999-666666-6-66666666666666-7-77777-999999--9-|
E:-7-77777--------4-44444444444444---------777777----|
     ..... ......   ..............   ..... ......                            

e:-------------------------|
B:-------------------------|
G:111111111111111111111111-|
D:111111111111111111111111-|
A:-9-9-9-9-9-9-9-9-9-9-9-9-|
E:-------------------------|
   . . . . . . . .      

Chorus
e:----------------------------------------------------------------------|
B:----------------------------------------------------99999999-88888888-|
G:------------------8888888888888888------------------99999999-99999999-|
D:-9999999999999999-8888888888888888-6666666666666666-99999999-99999999-|
A:-9999999999999999-6666666666666666-6666666666666666-77777777-77777777-|
E:-7777777777777777------------------4444444444444444-------------------|

e:----------------------------------------------------------------------|
B:----------------------------------------------------99999999-88888888-|
G:------------------8888888888888888------------------99999999-99999999-|
D:-9999999999999999-8888888888888888-6666666666666666-99999999-99999999-|
A:-9999999999999999-6666666666666666-6666666666666666-77777777-77777777-|
E:-7777777777777777------------------4444444444444444-------------------|

Gtr.1      
e:----------------------------------------------------------------------|
B:----------------------------------------------------99999999-88888888-|
G:------------------8888888888888888------------------99999999-99999999-|
D:-9999999999999999-8888888888888888-6666666666666666-99999999-99999999-|
A:-9999999999999999-6666666666666666-6666666666666666-77777777-77777777-|
E:-7777777777777777------------------4444444444444444-------------------|

e:----------------------------------------------------------------------|
B:----------------------------------------------------99999999-88888888-|
G:------------------8888888888888888------------------99999999-99999999-|
D:-9999999999999999-8888888888888888-6666666666666666-99999999-99999999-|
A:-9999999999999999-6666666666666666-6666666666666666-77777777-77777777-|
E:-7777777777777777------------------4444444444444444-------------------|
       
Gtr.2 Solo
e:---------------------------------|
B:-7--7-7--7--7--7-7--7-7--7--7--7-|
G:-9b11-9b11-11-11-9b11-9b11-11-11-|
D:---------------------------------|
A:---------------------------------|
E:---------------------------------|

e:------------------------------------------------------------|
B:--8--8--8--8--8--8--8--8-9-11--9--9--9--9--9--9--9--9--8----|
G:-10b12-10b12-12-12-10b12------11b13-11b13-13-13-11b13-10b12-|
D:------------------------------------------------------------|
A:------------------------------------------------------------|
E:------------------------------------------------------------|

  . Palm Mute

Order:
Intro
Chorus 
Verse
Chorus
Solo
Verse
Chorus
Chorus/Solo

SlyFooX Out!
Suggest correction new What's this?
You can suggest a correction to this tab. Community and Mods will review your correction and vote to approve or reject it.
comments
We did not receive enough feedback on this tab! Please rate:
print report bad tab
1 2 3 4 5
guest
You may want to rate the tab now too:
select rating
Please do not post tabs as comments. Select "correction" instead!