Oops, an error
Loading. Please wait.

Nice Guys Finish Last Tab

version 2
version 2

Whole song

Interactive

Video

2,106 views 3 this week
5 commentsread comments
1 2 3 4 5
worth learning
x 5
add to favorites
launch autoscroll
font size
0
reset
how to read this tab
guitar tuner
Tab Pro tools
  • play this tab
  • loop segment
  • change instrument
  • show fretboard
  • metronome
×
Best way to learn
"Nice Guys Finish Last"
Autoscroll
slow
fast
+/-
esc
set tempo
stop
Contributor
SONG: Nice Guys Finish Last
ARTIST: Green Day
ALBUM: Nimrod
TABBED BY: Tedrick, Dingo of Empathy

Okay, this tab will seem really weird but I assure you its perfect. Most of the chords
in this song resemble power chords so you can substitute the correct power chords in if
you want.


**************************** Nice Guys Finish Last **************************


Intro
(Watch for the Palm Muting)
E|--------------------------------------------------------------------------|
B|-----------------999999----444444----999999----444444----999999----444444-|
G|-----------------999999-66-444444-66-999999-66-444444-66-999999-66-444444-|
D|-777777777777777-999999-77-444444-77-999999-77-444444-77-999999-77-444444-|
A|-777777777777777-777777-77-222222-77-777777-77-222222-77-777777-77-222222-|
E|-555555555555555--------55--------55--------55--------55--------55--------|
 PM.............

------------------------|
----999999----444444—---|
-66-999999-66-444444-66-|
-77-999999-77-444444-77-|
-77-777777-77-222222-77-|
-55--------55--------55-|


Verse
(Watch for Palm Muting)
E|--------------------------------------------------------------------|
B|-33----------------------------3--33--------------------------------|
G|-33-------------------------6--3--33------------------------------6-|
D|-33-(bass for a long while)-7--3--3333333333333333333333333333333-7-|
A|-11-------------------------7--1--1111111111111111111111111111111-7-|
E|----------------------------5-------------------------------------5-|
                                  PM.................................

-------------------------------------|
-4444444444444444-9--9--999999999999-|
-4444444444444444-9--9--999999999999-|
-4444444444444444-9--9--999999999999-|
-2222222222222222-7--7--777777777777-|
-------------------------------------|
 ............


Pre-Chorus
E|------------------------------------------------------------------|
B|-----------------------9--9-9-99999-9-9—9999----------------------|
G|-6--6--66666--6--66666-9--9-9-99999-9-9—9999----------------------| Repeat this riff 3 times then,
D|-7--7--77777--7--77777-9--9-9-99999-9-9—9999----------------------|
A|-7--7--77777--7--77777-7--7-7-77777-7-7—7777----------------------|
E|-5--5--55555--5--55555--------------------------------------------|
E|-------------------------------------------------------222222222--|
B|---------------------------------------------4--4--444-222222222--|
G|-6--6--66666--6--66666-3--3-3-33333-3-3—3333-4--4--444-444444444--|
D|-7--7--77777--7--77777-4--4-4-44444-4-4—4444-4--4--444-444444444--|
A|-7--7--77777--7--77777-4--4-4-44444-4-4—4444-2--2--222-222222222--|
E|-5--5--55555--5--55555-2--2-2-22222-2-2—2222----------------------|


Chorus

E|--------------------------------------------------------------------------|
B|-9--9-999----------9-9--9--999-----------9--9-999-----------4444444444444-|
G|-9--9-999-66666666-9-9--9--999-666666660-9--9-999-666666660-4444444444444-|
D|-9--9-999-77777777-9-9--9--999-777777770-9--9-999-777777770-4444444444444-|
A|-7--7-777-77777777-7-7--7--777-777777770-7--7-777-777777770-2222222222222-|
E|----------55555555-------------555555550----------555555550---------------|

-----|
---9-|
66-9-|
77-9-|
77-7-|
55---|


Interlude

E|------------------------------------------------------------------------|
B|-99999----444444----999999----444444----999999----444444----999999------|
G|-99999-66-444444-66-999999-66-444444-66-999999-66-444444-66-999999------|
D|-99999-77-444444-77-999999-77-444444-77-999999-77-444444-77-999999-66-7-|
A|-77777-77-222222-77-777777-77-222222-77-777777-77-222222-77-777777-66-7-|
E|-------55--------55--------55--------55--------55--------55--------44-5-|

------------------------------00000000-|
--------------------444444444-00000000-|
-66666----333333-66-444444444-88888888-|
-77777-77-444444-77-444444444-99999999-|
-77777-77-444444-77-222222222-99999999-|
-55555-55-222222-55-----------77777777-|


Song Order:

Intro x1
Verse x1
Pre-Chorus x1
Chorus x1
Verse x1
Pre-Chorus x1
Chorus x2
Interlude x1
Chorus x2
comments
print report bad tab
5 comments total. Showing first comments.
+1 reply
Yertle wrote on February 20 2006, 06:04 pm

No points for copying it from the book, Tedrick

0 reply
billebob666 wrote on January 31 2007, 04:44 pm

simple powerchords sounds better
ie: 6
7 not 7
7 7
5 5

+1 reply
billebob666 wrote on January 31 2007, 04:44 pm

that ****ed up ^^^ !

I want to post or [tab]
guest
You may want to rate the tab now too:
select rating
Please do not post tabs as comments. Select "correction" instead!