Oops, an error
Loading. Please wait.

Nightlife Bass

version 1
version 1

Whole song

Interactive

10,702 views 12 this week
4 commentsread comments
1 2 3 4 5
x 13
add to favorites
×
Save as Personal and add changes to this tab that will be seen only by you. Learn more ›
×
You can save this tab as Personal to edit and correct it or add notes. All changes will be seen only by you. Learn more »
save as personal
new!
launch autoscroll
font size
0
reset
guitar tuner
Autoscroll
slow
fast
+/-
esc
set tempo
stop
Difficulty
intermediate
Bass comes at 0.09
The first you play this x1
G|------------------------------------------------------|
D|--9--------5-----------5--5---------------------------|
A|---h7--5h7----5h7--5h7-------------5--5s7--5h7--stop--|
E|---------------------------h7--5h7--------------------| 

Then this 
G|--------------------------------------------------|
D|----------5------------5--5---------------------5-|
A|---7~--5h7----5h7~--5h7-------------5--5s7~--5h7--|
E|----------------------------h7~--5h7--------------|

G|--------------------------------------------------|
D|-9--------5------------5--5---------------------5-| 
A|--h7~--5h7----5h7~--5h7-------------5--5s7~--5h7--|
E|---------------------------h7~--5h7---------------|

So, play this^ all time and you'll get it
It's my first tab - i hope you enjoy it ^__^
Please rate me 5 if this is right tabs
Suggest correction
comments
print report bad tab
4 comments total. Showing first comments.
+2 reply
GreenDayNimrod. 113 Nov 09, 2012 04:36 AM

At 1.20 in the song you're suposed to play it like this two times:

G|----------5---------------------------------------|
D|-9h7---5h7-------------5--5---------------------5-|
A|----~---------5h7~--5h7-------------5--5s7~--5h7--|
E|---------------------------h7~--5h7---------------|

-1 reply
robotfrom94 314 Jan 02, 2013 02:43 AM

I don't quite understand what you do when the tab goes from a 5th fret on the D to the hammered on 7th on the E.
how do you actually play it?

-1 reply
ellaprtr33 10 Jul 12, 2013 09:39 PM

I agree with robot... How are you supposed to play that?

guest
Wanna post a correction for this tab? Suggest correction