Oops, an error
Loading. Please wait.

Nightlife Bass Tab

version 2
version 2

Whole song

Interactive

4,413 views 12 this week
no commentswrite comment
1 2 3 4 5
excellent!
x 5
add to favorites
launch autoscroll
font size
0
reset
guitar tuner
Tab Pro tools
  • play this tab
  • loop segment
  • change instrument
  • show fretboard
  • metronome
×
Best way to learn
"Nightlife"
Autoscroll
slow
fast
+/-
esc
set tempo
stop
Contributor
Chorus 0:09 "My favourite color's candy apple, girl"
G|------------------------------------------------------|
D|--9--------5-----------5------------------------------|
A|---h7--5h7----5h7--5h7----5--------5--5s7--5h7--stop--|
E|---------------------------h7--5h7--------------------| 

Girl Verse 0:21 "What's that I hear? You wanna go for a ride?" 
G|---------------------------------------------------|
D|----------5------------5------------------------5~-|
A|---7~--5h7----5h7~--5h7---5---------5--5s7~--5h7---|
E|----------------------------h7~--5h7---------------|

"I'll be the devil on your shoulder saying"
G|--------------------------------------------------|
D|-9--------5------------5------------------------5-| 
A|--h7~--5h7----5h7~--5h7---5---------5--5s7~--5h7--|
E|---------------------------h7~--5h7---------------|

Chorus 0:40 "Taking a ride to my old haunt"
G|--------------------------------------------------|
D|-9--------5------------5------------------------5-| 
A|--h7~--5h7----5h7~--5h7---5---------5--5s7~--5h7--|
E|---------------------------h7~--5h7---------------|

"My favourite color's candy apple, girl"
G|--------------------------------------------------|
D|-9--------5------------5------------------------5-| 
A|--h7~--5h7----5h7~--5h7---5---------5--5s7~--5h7--|
E|---------------------------h7~--5h7---------------|

Girl Verse 1:00 "Short of breath, Heart beats fast"
G|--------------------------------------------------|
D|-9--------5------------5------------------------5-| 
A|--h7~--5h7----5h7~--5h7---5---------5--5s7~--5h7--|
E|---------------------------h7~--5h7---------------|

"Red velvet walls, Line the sugar-coated halls"
G|--------------------------------------------------|
D|-9--------5------------5------------------------5-| 
A|--h7~--5h7----5h7~--5h7---5---------5--5s7~--5h7--|
E|---------------------------h7~--5h7---------------|

BJA Verse 1:21 "Well I am rollin', strollin' into town"
G|---------------------------------------------------|
D|-9h7~--5h7-9--5---------5------------------------5-| 
A|---------------h7~--5h7---5---------5--5s7~--5h7---|
E|---------------------------h7~--5h7----------------|

"This dirty city is my sugar town"
G|---------------------------------------------------|
D|-9h7~--5h7-9--5---------5--------------------------| 
A|---------------h7~--5h7---5---------5--5----stop---|
E|---------------------------h7~--5h7----------------|

Solo 1:41
G|---------------------------------------------------|
D|----------5------------5------------------------5~-|
A|---7~--5h7----5h7~--5h7---5---------5--5s7~--5h7---|
E|----------------------------h7~--5h7---------------|

G|------------------------------------------------------------|
D|-9--------5------------5------------------------5--9~--stop-| 
A|--h7~--5h7----5h7~--5h7---5---------5--5s7~--5h7------------|
E|---------------------------h7~--5h7-------------------------|

SILENCE 2:01 -> 2:21 (When the girl sings)

Chorus 2:21 "Taking a ride to my old haunt"
G|---------------------------------------------------|
D|----------5------------5------------------------5~-|
A|---7~--5h7----5h7~--5h7---5---------5--5s7~--5h7---|
E|----------------------------h7~--5h7---------------|

"My favourite color's candy apple, girl"
G|------------------------------------------------------------|
D|-9--------5------------5------------------------5--9~--stop-| 
A|--h7~--5h7----5h7~--5h7---5---------5--5s7~--5h7------------|
E|---------------------------h7~--5h7-------------------------|

Bass End 2:41


No bass at the end, only drums and voices.
comments
print report bad tab
I want to post or [tab]
guest
You may want to rate the tab now too:
select rating
Please do not post tabs as comments. Select "correction" instead!