Oops, an error
Loading. Please wait.

Nightlife chords

version 2
version 2

Whole song

Interactive

4,612 views 12 this week
1 commentread comment
1 2 3 4 5
x 8
add to favorites
×
Save as Personal and add changes to this tab that will be seen only by you. Learn more ›
×
You can save this tab as Personal to edit and correct it or add notes. All changes will be seen only by you. Learn more »
launch autoscroll
font size
0
reset
transpose
0
reset
display chords
guitar tuner
edit
Autoscroll
slow
fast
+/-
esc
set tempo
stop
Strumming
There is no strumming pattern for this song yet. and get +5 IQ
Cool song,not really what I'm used to with Green Day,but I liked it anyways.

The main three chords are:

  Em     Bm     Am
|-7--| |-7--| |-5--|
|-8--| |-7--| |-5--|
|-9--| |-7--| |-5--|
|-9--| |-9--| |-7--|
|-7--| |-9--| |-7--|
|-7--| |-7--| |-5--|

Intro:

  Em        Em      Em    Em
Taking a ride to my old haunt

     Bm            Bm       Em        Em  
She's in my blood, I reside in my nightlife

    Em               Em     Em      Em    
My favourite color's candy apple, girl (hahahah)

    Bm          Bm         Em        Em
And she resides in my mind and my nightlife

Verse:no guitar

Chorus:

  Em        Em      Em    Em
Taking a ride to my old haunt

     Bm            Bm       Em        Em  
She's in my blood, I reside in my nightlife

    Em               Em     Em      Em    
My favourite color's candy apple, girl (hahahah)

    Bm          Bm         Em        Em
And she resides in my mind and my nightlife

Verse:no guitar

Bridge:

     Am           Am           Em   Em
Well I am rollin', strollin' into town (come inside)

   Bm    Bm       Em    Em
Is it me or am I going crazy? (it's just you)

     Am         Am      Em    Em
This dirty city is my sugar town (sugar town)

    Bm      Bm           Em        Em
My little angel of death is my nightlife (get me up)

Then comes this:

|--------------------------------------------------------|
|--------------------------------------------------------|
|--------------------------------------------------------|x2
|--------------------------------------------------------|
|--------------------------------------------------------|
|--0-0-3-7--5-3-5--3-0-----2-2-0-2--2-0-2b--2-0-2b-2-0---|

Verse:

|--------------------------------------------------------|
|--------------------------------------------------------|
|--------------------------------------------------------|x2
|--------------------------------------------------------|
|--------------------------------------------------------|
|--0-0-3-7--5-3-5--3-0-----2-2-0-2--2-0-2b--2-0-2b-2-0---|

Chorus:

  Em        Em      Em    Em
Taking a ride to my old haunt

     Bm            Bm       Em        Em  
She's in my blood, I reside in my nightlife

    Em               Em     Em      Em    
My favourite color's candy apple, girl (hahahah)

    Bm          Bm         Em        Em
And she resides in my mind and my nightlife

Outro:no guitar


Hope you like it.

            
            
Suggest correction
Creating personal tab
Creating personal tab
You can edit any tab online and save it as your Personal.

You can edit, replace or remove any tab part or add personal notes – all changes will be seen only by you.

Personal tabs can be accessed anytime from any device, even offline.
Learn more »
comments
print report bad tab
1 comment total.
0 reply
rickherrewijnen 10 May 09, 2014 11:08 AM

Really nice done.
When the guitar uses the only the E string to play, it should be like this.

|----------------------------------------------------------|
|----------------------------------------------------------|
|----------------------------------------------------------|x2
|----------------------------------------------------------|
|----------------------------------------------------------|
|--0-0-3-7--5-3-5--3-0-----2-2-0-2--2-0-2b--2-0-2b-3-2-0---|

guest
You may want to rate the tab now too:
select rating
Wanna post a correction for this tab? Suggest correction