Oops, an error
Loading. Please wait.

Nimrod Bass Tab

8,148 views 15 this week
3 commentsread comments
1 2 3 4 5
accurate
x 7
add to favorites
launch autoscroll
font size
0
reset
guitar tuner
Tab Pro tools
  • play this tab
  • loop segment
  • change instrument
  • show fretboard
  • metronome
×
Best way to learn
"Nimrod"
Autoscroll
slow
fast
+/-
esc
set tempo
stop
Contributor
Green Day Nimrod bass album tab
Tabbed by Liam
Email: guitar_rocker_47@hotmail.com
tuning: all half a step down -i think? any problems just email

 1. Nice Guys Finish Last 
 2. Hitchin' A Ride    
 3. The Grouch 
 4. Redundant 
 5. Scattered 
 6. All The Time 
 7. Worry Rock 
 8. Platypus (I Hate You 
 9. Uptight
10. Last Ride In
11. Jinx
12. Haushinka
13. Walking Alone
14. Reject
15. Take Back
16. King For A Day
17. Good Riddance (Time Of Your Life)
18. Prosthetic Head

--------------------------------------------------------------------------------------
Green Day Nice guys finish last
--------------------------------------------------------------------------------------

Intro
G|---------------------------|---------------------------|
D|---------------------------|---------------------------| x4 then play
A|---7-7-7-7-7---------------|---7-7-7-7-7---------------| that below
E|-5------------5--7-7-7-7-7-|-5------------5--7-7-7-7-7-|

G|--------------------------------------|
D|--------------------------------------|
A|----6/7--7-7--6/7--7-7--6/7--7-7----7-|
E|-5--------------------------------5---|

Verse part 1 
G|-----------------|-----------------|-----------------|-----------------|
D|-----------------|-----------------|-----------------|-----------------|
A|-7-7-7-7-7-7-7-7-|-7-7-7-7-7-7-7-7-|-7-7-7-7-7-7-7-7-|-7-7-7-7-7-7-7-7-|
E|-----------------|-----------------|-----------------|-----------------|

G|-----------------|-----------------|-----------------|-----------------|
D|-----------------|-----------------|-----------------|-----------------|
A|-7-7-7-7-7-7-7-7-|-7-7-7-7-7-7-7---|-----------------|-----------------|
E|-----------------|---------------5-|-7-7-7-7-7-7-7-7-|-7-7-7-7-7-7-7\--|

G|-----------------|---------------|
D|-----------------|---------------|
A|-7-7-7-7-7-7-7-7-|-7-7-7-7-7---7-|
E|-----------------|-----------5---|

Verse part 2
G|-------|---------------------------------|----------------------------------|
D|-------|---------------------------------|----------------------------------|
A|----7--|-7-7-7-7-7-7-7-7-7-7-7-7-7-7-7-7-|-7-7-7-7-7-7-7-7-7-7-7-7-7-7-7-7--|
E|-5-----|---------------------------------|----------------------------------|
PM         *****************************************************************

G|---------------------------------|---------------------|
D|---------------------------------|---------------------|
A|---------------------------------|-7-7-7-7-7-7-7-7-7-7-|
E|-7-7-7-7-7-7-7-7-7-7-7-7-7-7-7-7-|---------------------|
PM *******************************

Pre Chorus
G|---------------------|---------------------|
D|---------------------|---------------------| x3 then play 
A|---------------------|-7-7-7-7-7-7-7-7-7-7-| that below
E|-5-5-5-5-5-5-5-5-5-5-|---------------------|

G|-----------------|---------------------|
D|-----------------|---------------------|
A|-----------------|-2-2-2-2-2-2-2-2-2-2-|
E|-2-2-2-2-2-2-2-2-|---------------------|

Chorus
G|--------------------------|    |---------------------------------|
D|--------------------------|    |---------------------------------|
A|-7-7-7-7--0-0-0-0-0-0-0-0-| x3 |-2-2-2-2-2-2-2-2-2-2-2-2-2-2-2-2-|
E|--------------------------|    |---------------------------------|

Bridge
G|--------------|--------------|--------------|--------------|----------------|
D|--------------|--------------|--------------|--------------|----------------|
A|----7-7-7-7-7-|--------------|----7-7-7-7-7-|--------------|----7-7-7-7-7---|
E|-5------------|-5--7-7-7-7-7-|-5------------|-5--7-7-7-7-7-|-5--------------|

G|--------------|--------------|------------------------------------------------|
D|--------------|--------------|------------------------------------------------|
A|--------------|----7-7-7-7-7-|------------------------------------------------|
E|-5--7-7-7-7-7-|-5------------|-4--5-5-5-5-5--4--2-2-2-2-2--5--7-7-7-7-7-7-7-7-|

G|---------------|
D|---------------|
A|---------------|
E|-7-7-7-7-7-7-7-|

Outro
G|------------------------------------------|
D|------------------------------------------|
A|--------6/7--7-7--6/7--7-7--6/7--7-7----7-|
E|-5--0---------------------------------5---|

Order

Intro
Verse part 1
Verse part 2
Pre Chorus
Chorus 
Verse part 2 x2
Pre Chorus
Chorus x2
Bridge
Chorus x2
Outro

--------------------------------------------------------------------------------------
Green Day Hitchin’ a ride
--------------------------------------------------------------------------------------

Main Riff 
G|--------------------------|--------------------------|
D|--------------------------|--------------------------|
A|--------------------------|--------------------------|
E|-7-7--5-5--4-4--3-3-3-3-3-|-7-7--5-5--4-4--3-3-3-3-3-|
PM ******************         ******************

Pre Chorus
G|--------------------------|----------------------------|
D|--------------------------|----------------------------|
A|--------------------------|----------------------------|
E|-7-7--5-5--4-4--3-3-3-3-3-|-7-7--5-5--4-4-4-4--3-3-3-3-|
PM ***********************************

Chorus
G|--------------------------|--------------------------|--------------------------|
D|--------------------------|--------------------------|--------------------------|
A|--------------------------|--------------------------|--------------------------|
E|-7-7--5-5--4-4--3-3-3-3-3-|-7-7--5-5--4-4--3-3-3-3-3-|-7-7--5-5--4-4--3-3-3-3-3-|

G|---------------|
D|---------------|
A|---------------|
E|-7-7--5-5--4-4-|

Chorus 2
G|--------------------------|--------------------------|--------------------------|
D|--------------------------|--------------------------|--------------------------|
A|--------------------------|--------------------------|--------------------------|
E|-7-7--5-5--4-4--3-3-3-3-3-|-7-7--5-5--4-4--3-3-3-3-3-|-7-7--5-5--4-4--3-3-3-3-3-|

G|------------------------|------------------------|------------------------|
D|------------------------|------------------------|------------------------|
A|------------------------|------------------------|------------------------|
E|-7777--5555--4444--3333-|-0-0-0-0-0-0--2-2-2-2-2-|-7-7--5-5--4-4--3-3-3-3-|

G|------------------------|
D|------------------------|
A|------------------------|
E|-0-0-0-0-0-0--2-2-2-2-2-|

Pre Solo
G|--------------------------|--------------------------|--------------------------|
D|--------------------------|--------------------------|--------------------------|
A|--------------------------|--------------------------|--------------------------|
E|-7-7--5-5--4-4--3-3-3-3-3-|-7-7--5-5--4-4--3-3-3-3-3-|-7-7--5-5--4-4--3-3-3-3-3-|
PM ******************         ******************         ******************

G|--------------------------|--------------------------|
D|--------------------------|--------------------------|
A|--------------------------|--------------------------|
E|-7-7--5-5--4-4--3-3-3-3-3-|-7-7--5-5--4-4--3-3-3-3-3-|
PM ******************         ******************

Solo
G|---------------------------|
D|---------------------------|
A|------------10-10--9-9-9-9-| x8
E|-7-7--10-10----------------|

Post Solo
G|------------------------|-------------------------|------------------------|
D|------------------------|-------------------------|------------------------|
A|------------------------|-------------------------|------------------------|
E|-0-0-0-0-0-0--2-2-2-2-2-|--7-7--5-5--4-4--3-3-3-3-|-0-0-0-0-0-0--2-2-2-2-2-|

Outro
G|----------------------|----------------------|----------------------|
D|-----------5-5--------|-----------5-5--------|-----------5-5--------|
A|------5-5------9-9-9-9|------5-5------9-9-9-9|------5-5------9-9-9-9|
E|-7-7------------------|-7-7------------------|-7-7------------------|

G|----------------------|----------------------|----------------------|
D|-----------5-5--------|-----------5-5--------|-----------5-5--------|
A|------5-5------9-9-9-9|------5-5------9-9-9-9|------5-5------9-9-9-9|
E|-7-7------------------|-7-7------------------|-7-7------------------|

G|----------------------|---------------------|
D|-----------5-5--------|---------------------|
A|------5-5------9-9-9-9|---------------------|
E|-7-7------------------|-7-7-7--5-5-5--4-4-4-|

Order

Main Riff x4
Pre Chorus
Chorus
Main Riff x3
Pre Chorus
Chorus 2
Pre Solo
Solo
Post Solo
Outro	

--------------------------------------------------------------------------------------
Green Day The Grouch
--------------------------------------------------------------------------------------

Intro (lead guitar plays on his own then join with this at 0.06)
G|------------------------------------------------------------|
D|------------------------------------------------------------|
A|----------------------5-5-5---------------------------------|
E|-5-5-5--0-0-0--5-5-5---------5-5-5--0-0-0--5-5-5-5--5-5-5-5-|

Verse
G|---------------------------------------------------------|
D|---------------------------------------------------------|
A|----------------------5-5-5------------------------------|
E|-5-5-5--0-0-0--5-5-5---------5-5-5--0-0-0---5-5-5--0-0-0-|

G|------------------------------------------------------------|
D|------------------------------------------------------------|
A|----------------------5-5-5---------------------------------|
E|-5-5-5--0-0-0--5-5-5---------5-5-5--0-0-0--5-5-5-5--5-5-5-5-|

Chorus
G|---------------------------------------------------------------|
D|---------------------------------------------------------------|
A|--------5-5-5-------------------------5-5-5-5----------7-7-7-7-|
E|-2-2-2---------5-5-5--0-0-0--2-2-2-2-----------5-5-5-5---------|

G|-----------------------------------------------------------------------|
D|-----------------------------------------------------------------------|
A|--------5-5-5-------------------------5-5-5-5-----------7-7-7-7-7-7-7-7|
E|-2-2-2---------5-5-5--0-0-0--2-2-2-2-----------5-5-5-5-----------------|

G|----------------|
D|----------------|
A|-7-7-7-7-7-7-7-7|
E|----------------|

End
G|--------------------------------------------------------------------------|
D|--------------------------------------------------------------------------|
A|------------------------------------------------------------------------5-|
E|-5-5-5--0-0-0--5-5-5-5-5-5-5-5--5-5-5--0-0-0--5-5-5-5-5-5-5-5--5-5-5-5----|


Order

Intro
Verse 
Chorus 
Verse x2
Chorus x2
Verse x2 \ While lead guitar is playing solo
Chorus   /
Intro (again wait for lead guitar to play on their own)
Verse
End

--------------------------------------------------------------------------------------
Green Day Redundant
--------------------------------------------------------------------------------------

Intro
G|----------------------------------------------------------------------------|
D|----------------------------------------------------------------------------|
A|------------------------------------------------------------2-2-2-2-2-2-2-2-|
E|-5-------4h5-4-------2h4--3-------3--0--2-2-2-2-2-2-2-2-0-------------------|

Intro cont
G|--------------------------------------------------|
D|--------------------------------------------------|
A|-5-5-5-5-5-5-5-5--0-0-0-0-0-0-0-0-0-0-0-0-----7-7-|
E|-------------------------------------------0------|

Verse
G|--------------------------------------------------------------|
D|--------------------------------------------------------------|
A|------------------5-5-5-5-5-5-5-5--------------5--------------|
E|-5-5-5-5-5-5-5-5-------------------5-5-5-5-5-5----5-5-5-5-5-5-|

G|------------------------------------------------------------|
D|------------------------------------------------------------|
A|--------------5-5-5-5-5-5-5-5-------------------------------|
E|-5-5-5-5-5-5-------------------0-0-0-0-0-0-0-0-0-0-0-0--3-3-|

G|--------------------------------------------------------------|
D|--------------------------------------------------------------|
A|------------------5-5-5-5-5-5-5-5--------------5--------------|
E|-5-5-5-5-5-5-5-5-------------------5-5-5-5-5-5----5-5-5-5-5-5-|

G|---------------------------------------------------------|
D|---------------------------------------------------------|
A|--------------5-5-5-5-5-5-5-5--7-7-7-7-7-7-7-7-7-7-7-7-7-|
E|-5-5-5-5-5-5---------------------------------------------|

Chorus
G|------------------------------------------------------------------------|
D|------------------------------------------------------------------------|
A|------------------------------------------------------------------------|
E|-5-5-5-5-5-5-5-5--4-4-4-4-4-4-4-4--3-3-3-3-3-3-3-3--2-2-2-2-2-2-2-2-2-2-|

G|----------------------------------------------------------------|
D|----------------------------------------------------------------|
A|-2-2-2-2-2-2-2-0--5-5-5-5-5-5-5-0---------------------------7-7-|
E|-----------------------------------5-5-5-5-5-5-5-5-5-5-5-0------|

Chorus 2
G|------------------------------------------------------------------------|
D|------------------------------------------------------------------------|
A|------------------------------------------------------------------------|
E|-5-5-5-5-5-5-5-5--4-4-4-4-4-4-4-4--3-3-3-3-3-3-3-3--2-2-2-2-2-2-2-2-2-2-|

G|--------------------------------------------------------------------|
D|--------------------------------------------------------------------|
A|-2-2-2-2-2-2-2-0--5-5-5-5-5-5-5-0-----------------------------------|
E|-----------------------------------5-5-5-5-5-5-5-5--5-5-5-5-5-5-5-5-|

Outro
G|----------------------------------------------|
D|----------------------------------------------|
A|----------------------------------------------|
E|-5bu-----4h5-4bu-----2h4--3-------3p0-0-2~~~--|

Order

Intro
Verse
Chorus
Verse
Chorus
Verse
Chorus 2 x2
Outro


--------------------------------------------------------------------------------------
Green Day Scattered
--------------------------------------------------------------------------------------

Intro
G|-------------------------|    |---------------------------|
D|-------------------------| x3 |---------------------------|
A|-2-2-2-2--x-0------------|    |-2-2-2-2-x-2-2-2-2-2-2-2-2-|
E|---------------0-0--0000-|    |---------------------------|

Verse
G|-----------------------------------------------|
D|-----------------------------------------------|
A|------------------------0000000000--2222222222-|
E|-0000000000-4444444444-------------------------|

G|-----------------------------------------------|
D|-----------------------------------------------|
A|------------------------0000000000--2222222222-|
E|-0000000000-4444444444-------------------------|

Chorus
G|----------------------------------------------------------------------------|
D|---------2-2-2-2-2-----------------------------------2-x-22-x-2--2--2--2~--2|
A|-4-4-4-4-----------2-2-2-2-00000000------------00000------------------------|
E|-------------------------------------2-2-2-2-2------------------------------|

G|----------------------------------------------------------------------------------|
D|---------2-2-2-2-2----------------------------------------------------------------|
A|-4-4-4-4-----------2-2-2-2-00000000------------00000------------------------------|
E|-------------------------------------2-2-2-2-2-------2-2-2-2-2-2--2-2-2-2-2-2-2-2-|

Bridge
G|----------------------------------------------|
D|----------------------------------------------| x3 then play
A|-0000000000-0000000000--0000000000-0000000000-| that below
E|----------------------------------------------|

G|----------------------------------------------|
D|----------------------------------------------|
A|-0000000000-0000000000--2222222222-2222222222-|
E|----------------------------------------------|

Last Chorus
G|----------------------------------------------------------------------------|
D|---------2-2-2-2-2-----------------------------------2-x-22-x-2--2--2--2~--2|
A|-4-4-4-4-----------2-2-2-2-00000000------------00000------------------------|
E|-------------------------------------2-2-2-2-2------------------------------|

G|--------------------------------------------------------------------------|
D|---------2-2-2-2-2--------------------------------------------------------|
A|-4-4-4-4-----------2-2-2-2-00000000------------00000----------4/7-7-7-7-7-|
E|-------------------------------------2-2-2-2-2-------2-2-2-2--------------|

Outro
G|----------------------------------------------|
D|----------------------------------------------|
A|------------0-0-0-0---------------------------|
E|--2-2-2-2-2-----------2-2-2-2-2-2-2-2--2~~~~~-|

Order

Intro
Intro Part 2
Verse
Chorus
Verse
Chorus
Intro x2
Intro part 2
Bridge
Verse
Last Chorus

--------------------------------------------------------------------------------------
Green Day All the time
--------------------------------------------------------------------------------------

Intro
G|-------------|    |-----------------|
D|-------------|    |-----------------|
A|-7-7--5------| x9 |-7-7-7-7-7-7-7-7-|
E|---------5-x-|    |-----------------|
 
Verse
G|--------------------------------|--------------------------------|
D|--------------------------------|--------------------------------|
A|------------------------5-5-5-5-|------------------------5-5-5-5-|
E|-4/5-5-5--5-5-5---3-3-3---------|-4/5-5-5--5-5-5---3-3-3---------|

Bridge 
G|----------------------|----------------------|
D|----------------------|----------------------|
A|-0-x-4-5-4----x-2-3-2-|-0-x-4-5-4----x-2-3-2-|
E|------------3---------|------------3---------|

Outro
G|-------------|    |------------------------|
D|-------------|    |------------------------|
A|-7-7--5------| x9 |-7-7-7-7-7-7-7-7--------|
E|---------5-x-|    |-----------------4/-\-5-|

Order

Intro
Verse x3
Intro
Verse x2
Intro
Verse x2
Bridge x2
Verse x2
Outro

--------------------------------------------------------------------------------------
Green Day Worry rock
--------------------------------------------------------------------------------------

Intro
G|---------------------------------|---------------------------------|
D|-2-2-2-2-2-2-2-2-----------------|-----------------2-2-2-2-2-2-2-2-|
A|-----------------2-2-2-2-2-2-2-2-|-0-0-0-0-0-0-0-0-----------------|
E|---------------------------------|---------------------------------|

Verse
G|---------------------------------|---------------------------------|
D|---------------------------------|---------------------------------|
A|-0-0-0-0-0-0-0-0-----------------|-0-0-0-0-0-0-0-0-2-2-2-2-2-2-2-2-|
E|-----------------0-0-0-0-0-0-0-0-|---------------------------------|

G|---------------------------------|---------------------------------|
D|---------------------------------|---------------------------------|
A|-----------------2-2-2-2-2-2-2-2-|-0-0-0-0-0-0-0-0-----------------|
E|-0-0-0-0-0-0-0-0-----------------|-----------------0-0-0-0-0-0-0-0-|

G|---------------------------------|---------------------------------|
D|---------------------------------|---------------------------------|
A|-0-0-0-0-0-0-0-0-----------------|-0-0-0-0-0-0-0-0-2-2-2-2-2-2-2-2-|
E|-----------------0-0-0-0-0-0-0-0-|---------------------------------|

Chorus
G|---------------------------------|---------------------------------|
D|---------------------------------|---------------------------------|
A|-4-4-4-4-4-4-4-4-----------------|-0-0-0-0-0-0-0-0-----------------|
E|-----------------4-4-4-4-4-4-4-4-|-----------------0-0-0-0-0-0-0-0-|

G|---------------------------------|---------------------------------|
D|---------------------------------|---------------------------------|
A|-4-4-4-4-4-4-4-4-----------------|-----------------2-2-2-2-2-2-2-2-|
E|-----------------4-4-4-4-4-4-4-4-|-2-2-2-2-2-2-2-2-----------------|

G|---------------------------------|---------------------------------|
D|---------------------------------|---------------------------------|
A|-----------------2-2-2-2-2-2-2-2-|-0-0-0-0-0-0-0-0-----------------|
E|-0-0-0-0-0-0-0-0-----------------|-----------------0-0-0-0-0-0-0-0-|

G|---------------------------------|---------------------------------|
D|---------------------------------|---------------------------------|
A|---------------------------------|-0-0-0-0-0-0-0-0-0-0-0-0-0-0-0-0-|
E|-0-0-0-0-0-0-0-0-0-0-0-0-0-0-0-0-|---------------------------------|

Outro 
G|--------------------------------------------------|    |-----------------|
D|--------------------------------------------------| x2 |-----------------|
A|-----------------0-0-0-0-0-0-0-0--2-2-2-2-2-2-2-2-|    |-----------------|
E|-0-0-0-0-0-0-0-0----------------------------------|    |-0-0-0-0-0-0-0-0-|

Order

Intro
Verse
Chorus
Verse
Chorus
Chorus 
Verse x1
Outro


--------------------------------------------------------------------------------------
Green Day Platypus (I Hate You)
--------------------------------------------------------------------------------------	

Intro	
G|--------------|--------------|--------------|--------------|
D|--------------|--------------|--------------|--------------|
A|--------------|--------------|--------------|--------------|
E|-7-7-7-7\3--2-|-7-7-7-7\3--2-|-7-7-7-7\3--2-|-7-7-7-7\3--2-|

Verse (where lyrics come in)
G|------------------------------------|------------------------------------|
D|------------------------------------|------------------------------------|
A|-------------------7-7-7-7----------|-------------------7-7-7-7----------|
E|-7-7-7-7--5-5-5-5-----------7-7-7-7-|-7-7-7-7--5-5-5-5-----------7-7-7-7-|

Chorus
G|---------------------------------|---------------------------------|
D|---------------------------------|---------------------------------|
A|---------------------------------|---------------------------------|
E|-5-5-5-5-5-5-5-5-5-5-5-5-5-5-5-5-|-5-5-5-5-5-5-5-5-5-5-5-5-5-5-5-5-|

G|--------------------------------------|
D|--------------------------------------|
A|-777----------------------------------|
E|------7-7-7-7-7-7-7-7-7-7-7-7-7-7-7-7-|

Chorus part 2
G|---------------------------------|---------------------------------|
D|---------------------------------|---------------------------------|
A|---------------------------------|---------------------------------|
E|-5-5-5-5-5-5-5-5-5-5-5-5-5-5-5-5-|-5-5-5-5-5-5-5-5-5-5-5-5-5-5-5-5-|

G|---------------------------------|---------------------------------|
D|---------------------------------|---------------------------------|
A|---------------------------------|-777-------------777-------------|
E|-2-2-2-2-2-2-2-2-2-2-2-2-2-2-2-2-|-----7-7-7-7-7-7-----7-7-7-7-7-7-|

G|-----------------|---------------------------|
D|-----------------|---------------------------|
A|-777-------------|-777-----------------------|
E|-----7-7-7-7-7-7-|-----7-7-7-7-7-7-7-7-7-7-7-|

Bridge
G|------------------------------------------------------------------|
D|--------------------------------------------------4-4-4-4-4-4-4-4-|
A|-----------------1-1-1-1-1-1-1-1--4-4-4-4-4-4-4-4-----------------|
E|-2-2-2-2-2-2-2-2--------------------------------------------------|

Order

Intro
Intro part 2 (guitar only)
Verse x2
Chorus
Verse x3
Chorus
Intro x2
Bridge
Verse x2
Chorus
(Guitar outro)

--------------------------------------------------------------------------------------	
Green Day Uptight 
--------------------------------------------------------------------------------------	
Notes: listen carefully for the way ive tabbed the bass here in the intro/Verse –cos it
doesn’t follow guitar –listen to the CD CAREFULLY!!!

Intro/Verse
G|------------------------------|
D|-4---------4----------4-------|
A|-----2---------2-----------2--|
E|------------------------------|
PM ***************************

Pre Chorus
G|-------------------------------------------------------------------|
D|-------------------------------------------------------------------|
A|-4444444444-2222222222-4444444444-2222222222-4444444444-2222222222-|
E|-------------------------------------------------------------------|
PM *****************************************************************

Chorus
G|--------------------------------------------------------------------|
D|--------------------------------------------------------------------|
A|----------2-2-2-2-2-2-----------2-2-2-2-2-2-----------4-4-4-4-4-4---|
E|-2-2-2-2---------------2-2-2-2---------------2-2-2-2----------------|

G|------------------------|
D|------------------------|
A|----------2-2-2-x-4-4-4-|
E|-2-2-2-2----------------|

Bridge
G|------------------------------------|-----------------------------------|
D|------------------------------------|-----------------------------------|
A|-4-4-4-2-2-2--4-4-4-2-2-2--4-4-2-2--|-4-4-4-2-2-2--4-4-4-2-2-2--4-4-2-2-|
E|------------------------------------|-----------------------------------|

End
G|---|
D|---|
A|-2-|
E|---|

Order

Intro/Verse x10
Pre Chorus
Intro/Verse x10
Pre Chorus
Chorus x2
Bridge x2
Chorus x4
End

--------------------------------------------------------------------------------------
Green Day Last ride in
--------------------------------------------------------------------------------------

Riff 1 
G|---------|---------|---------|---------|
D|---------|---------|---------|---------|
A|-2-----2-|-0-----0-|-2-----2-|-0-----0-|
E|----2----|----0----|----2----|----0----|

Riff 2
G|--------------------|--------------------|
D|--------------------|--------------------|
A|--------------------|--------------------|
E|-0---5--0--2--0--2\-|-0---5--0--2--0--2--|

Riff 3
G|-----------------|-----------------|----------------|---------------|
D|-----------------|-----------------|----------------|---------------|
A|-----------------|-----------------|----------------|---------------|
E|-0---0--0--0--0--|-0---0--0--0--0--|-2---2--2--2--2-|-2---2--2--2--2|

Outro

Riff 1 x6
Riff 2
Riff 3
Riff 1 x4 
Riff 1
Riff 3
Riff 1 x8
Riff 1
Riff 3
Riff 1 x4 
End on E|-2--|

--------------------------------------------------------------------------------------
Green Day Jinx
--------------------------------------------------------------------------------------

Intro
G|-------------------------|-------------------------|
D|-------------------------|-------------------------|
A|------3-3-3--x-5-5-5-5-5-|------3-3-3--x-5-5-5-5-5-|
E|-3-3---------------------|-3-3---------------------|

Verse/Chorus
G|--------------------------|-------------------------------------|
D|--------------------------|-------------------------------------|
A|--------------5-5-5-5-5-5-|-----3-3-3---------------3-3-3-3-3-3-|
E|-3-3-3-3-3-3--------------|-3-3-------3-3-3-3-3-3-3-------------|

G|---------------------------------------------------------------|
D|---------------------------------------------------------------|
A|-3-3-3-3-3-3---------------------------3-3-3-3-3-3-3-3-3-3-3-3-|
E|--------------3-3-3-3-3-3-3-3-3-3-3-3--------------------------|

G|---------------------------|--------------------------------------------------|
D|---------------------------|--------------------------------------------------|
A|------5-5-5--7-7-7-7-7-7-7-|-3-3-3-3-3-3--------------5-5-5-5-5-5-5-5-5-5-5-5-|
E|-3-3-----------------------|-------------1-1-1-1-1-1--------------------------|

Outro
G|------------------------|-----------------------------|
D|------------------------|-----------------------------|
A|----------3-3-3-3-3-3-3-|-5-5-5-5-5-5-5-5-5-5-5-5-5-5-|
E|-3-3-3-3----------------|-----------------------------|

Order

Intro x2
Verse/Chorus x2
Intro x2
Verse/Chorus x2
Intro x2
Outro x4

--------------------------------------------------------------------------------------
Green Day Haushinka
--------------------------------------------------------------------------------------
No bass until the pre chorus (0.039)

Pre Chorus
G|----------------------------------|
D|----------------------------------|
A|-5-5-5-5-5-5-5-5--5-5-5-5-5-5-5-5-|
E|----------------------------------|
PM ************

Chorus
G|----------------------------------------|    |-----------|-----------|
D|----------------------------------------| x4 |-----------|-----------|
A|-5-5-5-5--3-3-3-3-----------------------|    |-----------|-----------|
E|-------------------3-3-3-3-3--1-1-1-x-3-|    |-1-1-1-x-3-|-1-1-1-x-3-|

G|-----------------------------------|
D|-----------------------------------|
A|-----------------------------------|
E|-5-5-5-5-5-5-5-5-5-5-5-5-5-5-5-5-5-|

Bridge
G|---------------------------------------------------------------|
D|---------------------------------------------------------------|
A|---------------------------------------------------------------|
E|-7-7-7-7---5-5-5-5-5-5-5-5--3-3-3-3-3-3-3-3--3-3-3-3-3-3-3-3-3-|

Bridge part 2
G|---------------------------------------------------------------|
D|---------------------------------------------------------------|
A|---------------------------------------------------------------|
E|-7-7-7-7---5-5-5-5-5-5-5-5--3-3-3-3-3-3-3-3--3-3-3-3-3-3-3-3-3-|
PM                              *************    ***************

Pre Solo
G|-------------------------|-------------------------|
D|-------------------------|-------------------------|
A|-------5-x-x-------------|-------5-x-x-------------|
E|-5-x-x-------3-3-x-5-x-x-|-5-x-x-------3-3-x-5-x-x-|

Solo backing
G|----------------------------------|----------------------------------|
D|----------------------------------|----------------------------------|
A|-5-5-5-5-5-5-5-5--5-5-5-5-5-5-5-5-|-3-3-3-3-3-3-3-3--3-3-3-3-3-3-3-3-|
E|----------------------------------|----------------------------------|

G|----------------------------------|----------------------------------|
D|----------------------------------|----------------------------------|
A|-5-5-5-5-5-5-5-5--5-5-5-5-5-5-5-5-|-3-3-3-3-3-3-3-3--3-3-3-3-3-3-3-3-|
E|----------------------------------|----------------------------------|

Order

Pre Chorus
Chorus
Pre Chorus
Chorus
Bridge x3
Bridge part 2
Pre Solo x2
Solo backing
Chorus

--------------------------------------------------------------------------------------
Green Day Walking Alone
--------------------------------------------------------------------------------------

Intro
G|----------------------------------|----------------------------------|
D|----------------------------------|----------------------------------|
A|----------------------------------|----------------------------------|
E|-3-3-3-3-3-3-3-3--0-0-0-0-0-0-0-0-|-3-3-3-3-3-3-3-3--0-0-0-0-0-0-0-0-|

Verse
G|----------------------------------|----------------------------------|
D|----------------------------------|----------------------------------|
A|----------------------------------|-3-3-3-3-3-3-3-3--5-5-5-5-5-5-5-5-|
E|-3-3-3-3-3-3-3-3--0-0-0-0-0-0-0-0-|----------------------------------|

Chorus
G|-------------------|    |------------------|-------------------|
D|-------------------|    |------------------|-------------------|
A|-33333333-55555555-| x3 |------------------|-33333333-55555555-|
E|-------------------|    |-333-111--0000000-|-------------------|

Order

Intro
Verse x2
Chorus
Intro 
Verse x2
Chorus
Intro
Verse x2
Chorus
Intro

--------------------------------------------------------------------------------------
Green Day Reject
--------------------------------------------------------------------------------------

Verse
G|------------------------------------|-----------------------------------|
D|------------------------------------|-----------------------------------|
A|------------------------------------|-4444444444444444------------------|
E|-7777777777777777--4444444444444444-|------------------2222222222222222-|

Verse Part 2
G|---------------------|  |----------------------------|----------------------|
D|---------------------|  |----------------------------|----------------------|
A|-----------2222222222|x2|-------222222---------------|-3333333333-----------|
E|-0000-3333-----------|  |-00-xx--------00-xx-44444444|------------2222222222|

Chorus
G|----------------------------|----------------------------|
D|----------------------------|----------------------------|
A|------------7---------------|------------7---------------|
E|-7-7-7-7-7-----7-7-7-7-7--5-|-7-7-7-7-7-----7-7-7-7-7--5-|

Bridge
G|-------------------------------------------------------------------------------|
D|-------------------------------------------------------------------------------|
A|--------9--9--9--9--9--9--9--9--9--9--9--9--9--9--9--9--9--9--9--9--9--9--9--9-|
E|-7-7--7--7--7--7--7--7--7--7--7--7--7--7--7--7--7--7--7--7--7--7--7--7--7--7---|

Outro
G|----------------------------------------|-----------------------|
D|----------------------------------------|-----------------------|
A|-7\--------------------2222222222222222-|------------2222222222-|
E|-----00000000-33333333------------------|-0000--3333------------|
PM     **************************

G|------------------------------------|------------------------------------|
D|------------------------------------|------------------------------------|
A|-2222222222222222--2222222222222222-|-2222222222222222--2222222222222222-|
E|------------------------------------|------------------------------------|

G|---------------------|
D|---------------------|
A|-----------2~~-2-2-2-|
E|-0~~---3~~-----------|

Order

Verse x2
Verse part 2
Chorus
Verse x2
Verse part 2
Chorus x2
Bridge x2
Outro

--------------------------------------------------------------------------------------
Green Day Take back
--------------------------------------------------------------------------------------

Riff 1
G|--------------------------|--------------------------|
D|--------------------------|--------------------------|
A|--------------------------|--------------------------|
E|-7-7-7-7-7--5-5---8--8--8-|-7-7-7-7-7--5-5---8--8--8-|

Riff 2
G|-------------------------|-------------------------|
D|-------------------------|-------------------------|
A|-6-6-6-6-6---------7-7-7-|-6-6-6-6-6------8--7-7-7-|
E|------------6-6-6--------|------------6-6-6--------|

Riff 3
G|------------|
D|------------|
A|-7~~--------|
E|-------5-5--|

Order

Riff 1 x4
Riff 2 x1
Riff 1 x5
Riff 2 x2
Riff 1 x2
Riff 3


--------------------------------------------------------------------------
Green Day king for a day
-------------------------------------------------------------------------

Verse
G|----------------------------|----------------------------|
D|----------------------------|----------------------------|
A|-7-x-x---------7-x-x--------|-4-x-x---------4-x-x--------|
E|--------7-7-7---------7-7-7-|--------4-4-4---------4-4-4-|
PM *******************************************************

Fill 1
G|---------------------|
D|---------------------|
A|-4-4-4-4-4-4-4-4-4-4-|
E|---------------------|	

Pre Chorus
G|------------------------------------------|
D|------------------------------------------|
A|------------------------------------------|
E|-5-5-5-5-5-5-5-5-5-5--7-7-7-7-7-7-7-7-7-7-|

Chorus
G|----------------------------|----------------------------|
D|----------------------------|----------------------------|
A|-7-x-x---------7-x-x--------|-4-x-x---------4-x-x--------|
E|--------7-7-7---------7-7-7-|--------4-4-4---------4-4-4-|

Post chorus
G|------------------------------------------|
D|------------------------------------------|
A|------------------------------------------|
E|-5-5-5-5-5-5-5-5-5-5--7-7-7-7-7-7-7-7-7-7-|

Order

Verse x6 
Fill 1
Pre Chorus x4
Chorus x3
Post Chorus
Verse x6 
Fill 1
Pre Chorus x4
Chorus x3
Post Chorus
Verse x8 
Fill 1
Pre Chorus x4
Chorus x7
Post Chorus x3
Verse x9 


--------------------------------------------------------------------------
Green Day Good Riddance (time of your life)
-------------------------------------------------------------------------

No bass in this song folks


--------------------------------------------------------------------------
Green Day Prosthetic head 
-------------------------------------------------------------------------

Guitar intro 


Verse
G|--------------------------------|--------------------------------|
D|--------------------------------|--------------------------------|
A|-7-7-------------5-5------------|-7-7-------------5-5------------|
E|-----x--7-7-7-7------x--5-5-5-5-|-----x--7-7-7-7------x--5-5-5-5-|

Pre Chorus 
G|---------------------------|---------------------------|
D|---------------------------|---------------------------|
A|-------------------------7-|-------------------------7-|
E|-7-7-7-7-7-7-7-7-7-7-7-7---|-7-7-7-7-7-7-7-7-7-7-7-7---|

G|---------------------------|---------------------------|
D|---------------------------|---------------------------|
A|-------------------------7-|-------------------------7-|
E|-7-7-7-7-7-7-7-7-7-7-7-7---|-7-7-7-7-7-7-7-7-7-7-7-7---|

Chorus
G|--------------------------------|--------------------------------|
D|--------------------------------|--------------------------------|
A|-7-7-------------5-5------------|-7-7-------------5-5------------|
E|-----x--7-7-7-7------x--5-5-5-5-|-----x--7-7-7-7------x--5-5-5-5-|

Bridge
G|---------|-----------|-----------|---------------|
D|---------|-----------|-----------|---------------|
A|-----7-7-|-----------|-----------|---5-5---------|
E|-7-x-----|-x-5-x-2-2-|-x-7-x-5-5-|-x-----x-5-5-5-|

Fill 1
G|---------------------------------|
D|---------------------------------|
A|---------------------------------|
E|-7-7-7-7-7-7-7-7-7-7-7-7-7-7-7-7-|

Order

Intro
Verse x4
Pre Chorus
Chorus x2
Verse x4
Pre Chorus
Chorus x4
Bridge
Fill 1
Verse x3
Chorus x5

thats it, hope its kwl? comments etc. via email and comments box, thanks
comments
print report bad tab
3 comments total.
0 reply
livinginmisery wrote on May 7 2007, 02:07 pm

damn how long did this take you.....someone has too much time on their hands lol good tab though 5 stars

0 reply
zonaiko wrote on April 30 2009, 01:10 am

I'm a total newb to playing bass, and I don't know the proper terminology to submit my correction, but...

For The Grouch, on the Intro and the second "line" of the Verse, I believe the second open E is actually the 7th fret.

E- 555 E- 000 E- 555 A-555 E-555 E-777 E- 5555 5555

Just thought I'd put my novice two cents in there. :D I'm not even sure if I'm right, but that's what it sounds like on the CD.

Awesome tab, though. Thanks. :)

0 reply
zonaiko wrote on April 30 2009, 01:13 am

Er... 7th fret on the A string, that is. :D

E- 555 E- 000 E- 555 A-555 E-555 A-777 E- 5555 5555

Yeah. Like that. I think. >.

I want to post or [tab]
guest
You may want to rate the tab now too:
select rating
Please do not post tabs as comments. Select "correction" instead!