Oops, an error
Loading. Please wait.
We have an official No Pride tab made by UG professional guitarists. Check out the tab »
×
1,993 views 1 this week
1 commentread comment
1 2 3 4 5
x 10
add to favorites
×
Save as Personal and add changes to this tab that will be seen only by you. Learn more ›
×
You can save this tab as Personal to edit and correct it or add notes. All changes will be seen only by you. Learn more »
launch autoscroll
font size
0
reset
how to read this tab
guitar tuner
edit
Autoscroll
slow
fast
+/-
esc
set tempo
stop
NOBODY HAS TABBED THIS SONG RIGHT!!!  I figured this song out without ever
looking at any tabs, and when I did finally look at them, they were all wrong!
Here's the correct way to tab it.

SONG:  No Pride
AUTHOR:  Green Day
CD:  Insomnia
Tabber:  Greenfinger182

INTRO:  It goes just like this:


---------------------------------
---------------------------------
---------777------555555---------
--55-----777------555555---------X4
--55-----555------333333---------
--33-----------------------------


VERSE:  Close to intro, but not quite the same.


------------------------------------------------------------------------
------------------------------------------------------------------------
----------------77777777----55555555------------------------------------
----55555555----77777777----55555555------555555------------------------X4
----55555555----55555555----33333333------555555------------------------
----33333333------------------------------333333------------------------
Well I am just a mutt and nowhere is my home
Where dignity's a landmine in the school of lost hope
I'm panhandled for life because I'm not afraid to beg
Hand me down your lost and founds and second hand regrets

Pre-chorus:  This is what everyone is getting wrong!!! When he sings "Choke
on it", you play one chord for each one.  On "choke" you play a "C". "On", you play
a "G", and on "it" you play an "A".  Same with "turn to sh*t".  Just look at the tab


------------------------------------------------------------------------
------------------------------------------------------------------------
----------------------------------------------5-------------------------
-2222222222222222222222222222222222222222222--5----5--7-----777777------
-2222222222222222222222222222222222222222222--3----5--7-----777777------
-0000000000000000000000000000000000000000000-------3--5-----555555------
You better swallow your pride now before you choke on it
You better digest your values before they turn to sh*t

Chorus:  You guys got this wrong too!!!  Here's how it goes:


------------------------------------------------------------------------
------------------------------------------------------------------------
----------------------777777----------555555----------------------------
--------555555--------777777----------555555--------------222222--------
--------555555--------555555----------333333--------------222222--------
--------333333--------------------------------------------000000--------
Honors gonna knock you down before you have a chance to stand and fight now

------------------------------------------------------------------------
------------------------------------------------------------------------
--------555555------------7---------------------------------------------
--------555555------------7---------------------------------------------
--------333333------------5---------------------------------------------
------------------------------------------------------------------------
You know I'm not the one(strum & stop music completely) I got no pride.

Go directly into the next verse.

2nd verse: Same as first.

2nd pre-chorus: Same as first

2nd chorus: Same as first.

Right after the second chorus, play the intro eight times.
Then play the pre-chorus and chorus again.  Then do this:

------------------------------------------------------------------------
------------------------------------------------------------------------
---------777-------55555555---------------------------------------------
---55----777-------55555555---------------------------------------------
---55----555-------33333333---------------------------------------------
---33-------------------------------------------------------------------
                I got no pride
                I got no pride
                Close your eyes and die
                I got no pride

Then end on:

-----------
-----------
-----------
----5------
----5------
----3------

That is 100% correct.  Now you know how to correctly tab this song.
Check out my "Forgiveness" tab by Goldfinger.

            
            
Suggest correction
Creating personal tab
Creating personal tab
You can edit any tab online and save it as your Personal.

You can edit, replace or remove any tab part or add personal notes – all changes will be seen only by you.

Personal tabs can be accessed anytime from any device, even offline.
Learn more »
comments
print report bad tab
1 comment total.
-1 reply
Tomb_Skull_ 51 Jan 19, 2011 11:16 PM

well your tab sounds wrong with the cd so stop lording it over.
pre chorus should be:
instead of
2 7
2 7
0, it should be 5

and chorus should be: (work out strumming)
e -------------------------
B -------------------------
G ----------------4--------
D -----5----------4--------
A -----5----------2--------
E -----3-------------------
Honors gonna knock you down

e ----------------------------------------------
B ----------------------------------------------
G -----5----------------------8-----------------
D -----5----------------------8-----------------
A -----3----------------------6-----------------
E ----------------------------------------------
before you have a chance to stand and fight now

I assure anyone, play it with the cd, it sounds right

guest
You may want to rate the tab now too:
select rating
Wanna post a correction for this tab? Suggest correction